Powderfinger - Thrilloilogy tab

----------------------------------------------------------------------------
	        THRILLOILOGY CONCRET INTRO - Powderfinger
----------------------------------------------------------------------------
Tabbed by: l&d
Tuning: Standard (eBGDAE)

During the Sunsets tour, this song was played with a different intro, so this is pretty 
close to the new one. It sounds better if played with distortion.

e|---------------------------------------------|
B|-5-3-5-3-5-3-5------5/7-10-7-10-7-10-7-10-7--|
G|---------------------------------------------|
D|---------------------------------------------|
A|---------------------------------------------|
E|---------------------------------------------|

e|------------------------------------------------------|
B|-5--5/8--8/10--10-----5--5/8--8/10--10/13--13/12--12--|
G|------------------------------------------------------|
D|------------------------------------------------------|
A|------------------------------------------------------|
E|------------------------------------------------------|

e|------------------------------------------------|
B|-5--5/8--8/10--10/7--7---8-7-8-7-8-7-8-7-8-7-5--|
G|------------------------------------------------|
D|------------------------------------------------|
A|------------------------------------------------|
E|------------------------------------------------|

e|------------------------------------------------------|
B|-5--5/8--8/10--10-----5--5/8--8/10--10/13--13/12--12--|
G|------------------------------------------------------|
D|------------------------------------------------------|
A|------------------------------------------------------|
E|------------------------------------------------------|

e|------------------------------------------------|
B|-5--5/8--8/10--10/7--7---8-7-8-7-8-7-8-7-8-7-5--|
G|------------------------------------------------|
D|------------------------------------------------|
A|------------------------------------------------|
E|------------------------------------------------|

e|-7--0-----0----7--0-----0----5--0-----0----3--3-2--|
B|-------3-------------3-------------3---------------|
G|---------------------------------------------------|   X 2
D|---------------------------------------------------|
A|---------------------------------------------------|
E|---------------------------------------------------|

Hope this helps.
Tap to rate this tab
 
# A B C D E F G H I J K L M N O P Q R S T U V W X Y Z