Song name
# A B C D E F G H I J K L M N O P Q R S T U V W X Y Z

Powderfinger - Dont Wanna Be Left Out tab

Help us improve GuitareTab! Take a short survey!
Don't Wanna Be Left Out

P O W D E R F I N G E R

Tabbed By Aaron Bridgeman (rokken@sicness.net)


http://bogans.arecool.net

KEY:
^ = Bend up a bit

INTRO / VERSE:
e|-----------------------------------------------------------------|
B|-----------------------------------------------------------------|
G|-----------------------------------------------------------------|
D|-----------------------------------------------------------------|
A|-----------------------------------------------------------------|
E|-1-1-1-1-1-1-1-4-4-4-4-4-4-4-4-4-1-1-1-1-1-1-1-4-4-6-6-6-6-6-6-6-|

CHORUS:
e|-----------------|
B|-6------- -5-5- -|
G|-6--5--7- -5-5- -|
D|-6--6--8- -5-5- -|
A|-4--6--8- -3-3- -|
E|----4--6---------|
Listen to song for timing and strumming, C chords played quickly

BRIDGE:
e|-------------|
B|-10----------|
G|-10--5--6--5-|
D|-10--5--6--5-|
A|-8---3--4--3-|
E|-------------|
Once again listen to song, these are the chords

BRIDGE 2:
e|-------------------------------------------------------------------------|
B|-6-6-6-6-6-6-6-9-9-9-9^-9^-9^-9-9-6-6-6-6-6-6-6-9-9-11-11-11-11-11-11-11-|
G|-------------------------------------------------------------------------|
D|-------------------------------------------------------------------------|
A|-------------------------------------------------------------------------|
E|-------------------------------------------------------------------------|
Rough, you work out where to bend

YEAH! BEST POWDERFINGER SONG EVER!
Related for Dont Wanna Be Left Out tab