Song name
# A B C D E F G H I J K L M N O P Q R S T U V W X Y Z

Powderfinger - Like A Dog tab

Like A Dog

P O W D E R F I N G E R

Tabbed By Aaron Bridgeman (rokken@sicness.net)


http://bogans.arecool.net

KEY:
* = harmonic
~ = vibrato
^ = bend up a bit

INTRO / VERSE: * * *                           * * *
e|-----------------------------------------------------------------|
B|-----------------------------------------------------------------|
G|-----------------------------------------------------------------|
D|-----5-5-----3-3-3-----5-----5-------3-3---------------3-----3---|
A|-6-6-----6-6-------6-6---6-6---6-4-4-----4-4-------4-4---4-4---4-|
E|---------------------------------------------3-3-3---------------|
               * * *                           * * *

PRE-CHORUS:
e|-11~~~~~---11^-9~~~~~---11~~~~~-13^-13^-9~~~~~-|
B|-----------------------------------------------|
G|-----------------------------------------------|
D|-----------------------------------------------|
A|-----------------------------------------------|
E|-----------------------------------------------|

CHORUS:
e|-------------------------|
B|-------------------------|
G|-------------------------|
D|----------------4--4-5-6-|
A|--------2-4-5-6----------|
E|-4----4------------------|

Yee-ha! Best 'finger song since "I don't wanna be left out"!
Tap to rate this tab
# A B C D E F G H I J K L M N O P Q R S T U V W X Y Z