Song name
# A B C D E F G H I J K L M N O P Q R S T U V W X Y Z

Powderfinger - Ill Be The One tab

Standard Tuning
verse
e|--------------------------------|
b|--------------------------------|
g|--------------------------------|
d|-2-2-2-2-2-2-2-2-4-4-4-4-4-4-4-4|
a|-2-2-2-2-2-2-2-2-2-2-2-2-2-2-2-2|
E|-0-0-0-0-0-0-0-0-0-0-0-0-0-0-0-0|

   1 & 2 & 3 & 4 & 1 & 2 & 3 & 4 &

e|-2-2-2-2-2-2-2-2-0-0-0-0-0-0-0-0|
b|-2-2-2-2-2-2-2-2-2-2-2-2-2-2-2-2|
g|-2-2-2-2-2-2-2-2-2-2-2-2-2-2-2-2|
d|-4-4-4-4-4-4-4-4-2-2-2-2-2-2-2-2|
a|-4-4-4-4-4-4-4-4-0-0-0-0-0-0-0-0|
E|-2-2-2-2-2-2-2-2----------------|

chorus
e|-------------------------------------|
b|-------------------------------------|
g|-------------------------------------|
d|-6-6-6-9-11-9-11-11-11-11-11-11-11-11|
a|-4-4-4-7--9-7--9--9--9--9--9--9--9--9|
E|-------------------------------------|

chorus outro
e|---------------------------|
b|---------------------------|
g|---------------------------|
d|-6-6-6-6-6-6-6-6-11-11-11-9|
a|-4-4-4-4-4-4-4-4--9--9--9-7|
E|---------------------------|
By Sam Clayton
Tap to rate this tab
# A B C D E F G H I J K L M N O P Q R S T U V W X Y Z