Song name
# A B C D E F G H I J K L M N O P Q R S T U V W X Y Z

Powderfinger - Pick You Up tab

-----------------------------------------------------------------------------
			     Pick You Up - Powderfinger
-----------------------------------------------------------------------------
Tabbed by: Nelson
Email:

Tuning: Standard

First time tab so i know its not perfect but hey at least it sounds similar to the song!


Intro & Verse (Intro x2, Verse x 4)

Guitar 1
e|--------------------------------------------------------------------------|
B|--------------------------------------------------------------------------|
G|----------------------10101010--101010--10101010--1010--------------------|
D|----------------------10101010--101010--10101010--1010--6-6-6-6--6-6------|
A|-10-10-10-10--10-10-7/8-8-8-8---8-8-7-/-8-8-8-8---8-8---6-6-6-6--6-6------|
E|--------------------------------------------------------4-4-4-4--4-4------|

Guitar 2
e|--------------------------------------------------------------------------|
B|--------------------------------------------------------------------------|
G|----------------------10101010--101010--10101010--1010--13-13-13-13--13-13|
D|----------------------10101010--101010--10101010--1010--11-11-11-11--11-11|
A|-10-10-10-10--10-10-7/8-8-8-8---8-8-7-/-8-8-8-8---8-8---11-11-11-11--11-11|
E|--------------------------------------------------------------------------|



Chorus (x4)
e|-----------------------------------------------|
B|-----------------------------------------------|
G|-----------------------------------------------|
D|-------10--10-----13---15-15-15-15-15-15-15-15-|
A|-------10--10-----13---15-15-15-15-15-15-15-15-|
E|-------8---8------11---13-13-13-13-13-13-13-13-|


Solo (x4 for each Guitar)

Guitar 1
e|--------------------------------------------------------------------------|
B|--------------------------------------------------------------------------|
G|--------------------------------------------------------------------------|
D|-10-10-10-10-10-10-10-10----8--8----15--15---13--13-----------------------|
A|-10-10-10-10-10-10-10-10----8--8----15--15---13--13-----------------------|
E|-8--8--8--8--8--8--8--8-----6--6----13--13---11--11-----------------------|


Guitar 2
e|--------------------------------------------------------------------------|
B|---13(b)------------------------------------------------------------------|
G|---------14(b)----12---10~ ------------8~ --------------------------------|
D|--------------------------------------------------------------------------|
A|--------------------------------------------------------------------------|
E|--------------------------------------------------------------------------|


Listen to the song to know when to play what. It Should go something like this though.

Intro x2
Verse x4 
Chorus x4
Verse x4 
Chorus x4
Solo x4
Verse x4
Chorus x4
Solo (Guitar 2) x14 to fade out
Solo (Guitar 1) comes in after 5x Guitar 2 and plays till end 

Cheers!

************************************

| /   slide up
| \   slide down
| h   hammer-on
| p   pull-off
| ~   vibrato
| +   harmonic
| x   Mute note
| b   Bend
| pb  Pre-bend
| br  Bend release
| pbr Pre-bend release
| brb Bend release bend

************************************
Tap to rate this tab
# A B C D E F G H I J K L M N O P Q R S T U V W X Y Z