Song name
# A B C D E F G H I J K L M N O P Q R S T U V W X Y Z

Powderfinger - These Days tab

Powderfinger-These days (Solo)
First tab but great song by a great band listen to the song to figure out the timing 
although it's pretty simple
Enjoy =)


e--------------------------------------------------------------------------|
B------5----------------------5--------------------5-7-10-10-14-12-12-10---|
G--------7-6-7-6-6-6-6-6-4----7-6-7-6-6-6-6-6-4----------------------------|
D--------------------------------------------------------------------------|
A--------------------------------------------------------------------------|
E--------------------------------------------------------------------------|

e--------------------------------------------------------------------------|
B---5-7-10-10-14-12-12-10/---5---------------------------------------------|
G------------------------------7-6-7-6-7-6-7-9-7-6~------------------------|
D--------------------------------------------------------------------------|
A--------------------------------------------------------------------------|
E--------------------------------------------------------------------------|
Tap to rate this tab
# A B C D E F G H I J K L M N O P Q R S T U V W X Y Z