Song name
# A B C D E F G H I J K L M N O P Q R S T U V W X Y Z

Powderfinger - Rockin Rocks tab

----------------------------------------------------------------------------
			     Rockin' Rocks - Powderfinger
----------------------------------------------------------------------------

Tabbed by: caldog (based on KnickaBocka's tab)
Email: frog_on_the_moon@hotmail.com

This is the best powderfinger song i have ever heard and i was really angry tat i 
find the solo. This is the tab for the whole song and includes the parts of the solo i know. 
someone could work out the rest then i could post it so then this song can be complete. thx

Just listen to teh song to know when each part comes in. The lead parts shouldn't be too 
to work out.

Tuning: Standard

intro/verse

e|----------------------|
B|----------------------|
G|--22222-2-2-2222222---|
D|--22222-4-5-2222222---|
A|--00000-0-0-3333333---|
E|----------------------|

chorus                   post-chorus

e|----------------------|-------------------------------------------|
B|----------------------|-------------------------------------------|
G|--22222---------5-55--|--777777777777-9-10-101010-1010-12-121212--|
D|--22222-55-3-33-5-55--|--777777777777-9-10-101010-1010-12-121212--|
A|--00000-55-3-33-3-33--|--555555555555-7-8--8-8-8--8-8--10-101010--|
E|--------33-1-11-------|-------------------------------------------|

fill 1                 fill 2

e|-------------------|---------------------|
B|-------------------|---15b(16)15p13------|
G|-------------------|---------------14~~--|
D|--7~~-7~~-7~~-7~~--|---------------------|
A|-------------------|---------------------|
E|-------------------|---------------------|

chorus
post-chorus
chorus (with fill 2)
post-chorus

solo

e|-----------------------------------------------------------|
B|-------11~~-15~~-17~~--------------------------------------|
G|--14~~-------------------dont know about the quick bit but-|
D|-------------------------think it is based on 14th note----|
A|-------------------------on the d string-------------------|
E|-----------------------------------------------------------|

e|------------------------------------------------------------------|
B|----------------------------------------------------/1313131313\--|
G|------------------------------------------------------------------|
D|--10-1010-7-1010--10-1010-7-12b(13)10-10-77-----------------------|
A|--------------------------------------------1010\-----------------|
E|------------------------------------------------------------------|

e|-------------------------------------------15-------15--|
B|--131313-10-1313-131313-10-1313-13-10-13-15--15b(16)----|
G|--------------------------------------------------------|
D|--------------------------------------------------------|
A|--------------------------------------------------------|
E|--------------------------------------------------------|

e|--------15-------15----------------|
B|-15b(16)--15b(16)--15b(16)--\10~~--|
G|-----------------------------------|
D|-----------------------------------|
A|-----------------------------------|
E|-----------------------------------|

solo rhythm

e|------------------------------------------------------------|
B|------------------------------------------------------------|
G|-141414141413-121212121211-101010101010-777777--------------|
D|-141414141413-121212121211-101010101010-777777--------------|
A|-121212121211-10101010109--8-8-8-8-8-8--555555--------------|
E|------------------------------------------------------------|

outro chorus (with fill 2)

e|----------------------|
B|----------------------|
G|--22222----7-77-------|
D|--22222-55-7-77-3-33--|
A|--00000-55-5-55-3-33--|
E|--------33------1-11--|

chorus (solo in background but i cant figure out so just make it up)

outro lead

e|-12-1215121517-|
B|---------------|
G|---------------|
D|---------------|
A|---------------|
E|---------------|

outro

e|----------------------------------|
B|----------------------------------|
G|-22222-----5----------------------|
D|-22222-5-3-5--7-77777777777---7\--|
A|-00000-5-3-3--7-77777777777---7\--|
E|-------3-1----5-55555555555---5\--|

thats it. just get the timing and repetition listening to the song and if anyone can 
out the rest of the solos then can they email me. thx

| /  slide up
| \  slide down
| p  pull-off
| ~  vibrato

============================================================================
Tap to rate this tab
# A B C D E F G H I J K L M N O P Q R S T U V W X Y Z