Guitaretab - guitar tabs
Song name
# A B C D E F G H I J K L M N O P Q R S T U V W X Y Z

Powderfinger - Stumblin tab

                           Stumblin' - Powderfinger
                               Vulture Street

If you have any questions or comments, Talk to me on A_Tree7@hotmail.com


b - Bend
/ - Slide
r - Release
~ - Vibrato
h - Hammer-on
p - Pull-off
There are 2 guitars in this song


Main Riff
|-------------------------------------|
|-------------------------------------|
|------------------6-6-6-6------------|Guitar 1 and 2
|-8-8-8---8-8-8----6-6-6-6------------|
|-8-8-8---8-8-8----4-4-4-4------------|
|-6-6-6---6-6-6-----------------------|

Chorus
|---------------------------------------------|
|---------------------------------------------|
|-------------------6-6-6-6-6-6---------------|Guitar 1
|-8-8-8-8---4-4-4---6-6-6-6-6-6---------------|
|-8-8-8-8---4-4-4---4-4-4-4-4-4---------------|
|-6-6-6-6---2-2-2-----------------------------|

|---------------------------------------------|
|---------------------------------------------|
|---------------------------------------------|
|-6-6-4-6--4-6-4--6-6-4-6---------------------|
|-6-6-4-6--4-6-4--6-6-4-6---------------------|
|-4-4-2-4--2-4-2--4-4-2-4---------------------|(Only do this part twice in all choruses)

|---6-6---6-6---6--------9-9----9-9----9------|
|---6-6---6-6---6--------9-9----9-9----9------|
|-8b----8b----8b------11b----11b----11b-------|Guitar 2
|---------------------------------------------|
|---------------------------------------------|
|---------------------------------------------|

|-9-9-7-9--7-9-7--9-9-7-9---------------------|
|-8-8-6-8--6-8-6--8-8-6-8---------------------|
|---------------------------------------------|
|---------------------------------------------|
|---------------------------------------------|
|---------------------------------------------|(Only do this part twice in all choruses)

Fills
1)
|---------------------------------------------------|
|-14br-11-------------------------------------------|
|-----------13br-11-13-11---11br--------------------|
|--------------------------------13--11--13~--------|
|---------------------------------------------------|
|---------------------------------------------------|
[ Tab from: http://www.guitaretab.com/p/powderfinger/53760.html ]
2)
|---------------------------------------------------|
|-11--14--14--14br----------------------------------|
|---------------------------------------------------|
|---------------------------------------------------|
|---------------------------------------------------|
|---------------------------------------------------|

Pre-Solo
|------|------|-------|-------|
|------|------|-------|-------|
|------|--8---|--11---|--13---|
|--6---|--8---|--11---|--13---|
|--6---|--6---|--9----|--11---|
|--4---|------|-------|-------|


Solo
|---------------------------------------------------|
|-14br-11-------------------------------------------|
|-----------13br-11-13-11---11br--------------------|
|--------------------------------13--11--13~--------|
|---------------------------------------------------|
|---------------------------------------------------|

|--------------------------------------------------------------------|
|-14br-11------------------------------------------------------------|
|-----------13br-11-13-11---11br-------------------------------------|
|--------------------------------13--11--13~------------------11~----|
|------------------------------------------------------11h13---------|
|-----------------------------------------------11h13----------------|


||--------11-------||----11h14p11-----------------------------------------|
||-----11----14p11-||-------------14--11h14p11----------------------------|
||-13b-------------||X4-------------------------13--11h13p11----11-----11-|
||-----------------||----------------------------------------13-----13----|
||-----------------||-----------------------------------------------------|
||-----------------||-----------------------------------------------------|

-----------------------------------------------------21-21-21-21----------|
---------------14-16-16b-16b-16p14-16b-16br~-----21b---------------21br19-|
-----------15-------------------------------------------------------------|
-13-13--------------------------------------------------------------------|
--------------------------------------------------------------------------|
--------------------------------------------------------------------------|

----21-21-21-21-21-21b(Full Bend)-------|
-21b------------------------------------|
----------------------------------------|
----------------------------------------|
----------------------------------------|
----------------------------------------|


Song Contents

Verse
Chorus
Fill 1
Verse
Fill 2
Verse
Chorus
Pre-Solo
Solo
Chorus
Related for Stumblin tab
Advertisement will be closed in 10 seconds