Guitaretab - guitar tabs
Song name
# A B C D E F G H I J K L M N O P Q R S T U V W X Y Z

Powderfinger - Love Your Way tab

e|--------------------------------------------------------------------|
B|--10---10---12---10-------------------------------------------------|
G|----------------------11---9----------------------------------------|
D|-------------------------------12---9---------9----12---9---------9-|
A|----------------------------------------12-------------------12-----|
E|--------------------------------------------------------------------|


e|--------------------------------------12^---10---12---10-----------|
B|----------------------------------------------------------12--12---|
G|-------------------------------------------------------------------|
D|---12---12---9--------9----9/---\9---------------------------------|
A|-----------------12------------------------------------------------|
E|-------------------------------------------------------------------|
[ Tab from: http://www.guitaretab.com/p/powderfinger/54403.html ]
e|--10------------------------10^------------------------------------|
B|------12---10---12--10--12--------12--10--12---------12---10-------|
G|------------------------------------------------/11------------11--|
D|-------------------------------------------------------------------|
A|-------------------------------------------------------------------|
E|-------------------------------------------------------------------|

e|-------------------------------------------------------------------|
B|--------------------------------------12--10-----------------------|
G|--9------------------------9----/11------------11---9--------------|
D|------12--9-------9---12--------------------------------12---9-----|
A|-------------12-------------------------------------------------12-|
E|-------------------------------------------------------------------|

e|-------------------------------------------------------------------|
B|-------------------------------------------------------------------|
G|-------------------------------------------------------------------|
D|---9--12--9--9----------9----12--9--12-----------------------------|
A|------------------/12----------------------------------------------|
E|-------------------------------------------------------------------|
Related for Love Your Way tab
Advertisement will be closed in 10 seconds