Song name
# A B C D E F G H I J K L M N O P Q R S T U V W X Y Z

Powderfinger - Thrilloilogy tab

-------------------------------------------------------------------------
			     Thrilloilogy - Powderfinger
-------------------------------------------------------------------------
Tabbed by: Anthony
Email:Anthony.d.smith@fluor.com

This is an amendment to the tab I originally posted, I stuffed up the names, it was
thrilloilogy not aeroplane.... I was going by memory

Tuning:standard

e|--7-0---0---7-0---0---6-0---0--3-2-----------------------------|
B|------3---------3---------3------------------------------------|
G|---------------------------------------------------------------|
D|---------------------------------------------------------------|
A|---------------------------------------------------------------|
E|---------------------------------------------------------------|

e|--7-0---0---7-0---0---6-0---0--3-2-3---------------------------|
B|------3---------3---------3------------------------------------|
G|---------------------------------------------------------------|
D|---------------------------------------------------------------|
A|---------------------------------------------------------------|
E|---------------------------------------------------------------|
Tap to rate this tab
# A B C D E F G H I J K L M N O P Q R S T U V W X Y Z