Song name
# A B C D E F G H I J K L M N O P Q R S T U V W X Y Z

Powderfinger - Trading Places tab

Verse

                                                
   E|-------------------------------------------|  
   B|-----------0-----0-3---------0-------------|  
   G|-----0h2p0-----2-----------0---------0-----| 
   D|-------------0---------2h4---------4---4---| 
   A|---------------------0---------------------| 
   E|--0----------------------------3-----------|


   E|-------------------------------------------|
   B|----------0-----0-3------------0------0--3-|
   G|----0h2p0-----2---------0h2p0-------2------|
   D|------------0---------------------0--------|
   A|--------------------0----------------------|
   E|-0-----------------------------------------|


   E|-------------------------------------------|
   B|-----------0-----0-3---------0-------------|
   G|-----0h2p0-----2-----------0---------0-----|
   D|-------------0---------2h4---------4---4---|
   A|---------------------0---------------------|
   E|--0----------------------------3-----------|


   E|-------------------------------------------|
   B|-----------------0-3----------0-----0------|
   G|---------------2-------0h2p0------2----0---|
   D|------4h5/7--0------------------0----------|
   A|---------------------0---------------------|   
   E|---0---------------------------------------|   
                                                 

First part

     A7                  F         A7          C    Dsus4

E|----------------0-------------------------------3-3-3---|
B|-------2----3--------1--1--1---------2-----1-1--3-3-3---|
G|-----0---------------2--2--2-------0---0---0-0--2-2-2---|
D|---2----------2---2--3--3--3-----2-------2-2-2----------|
A|---------------------3--3--3---------------3-3----------|
E|-0-----------------------------0------------------------|

 Verse

   E|-------------------------------------------|
   B|-----------0-----0-3---------0-------------|
   G|-----0h2p0-----2-----------0---------0-----|
   D|-------------0---------2h4---------4---4---|
   A|---------------------0---------------------|
   E|--0----------------------------3-----------|


   E|-------------------------------------------|
   B|----------0-----0-3------------0------0--3-|
   G|----0h2p0-----2---------0h2p0-------2------|
   D|------------0---------------------0--------|
   A|--------------------0----------------------|
   E|-0-----------------------------------------|


   E|-------------------------------------------|
   B|-----------0-----0-3---------0-------------|
   G|-----0h2p0-----2-----------0---------0-----|
   D|-------------0---------2h4---------4---4---|
   A|---------------------0---------------------|
   E|--0----------------------------3-----------|


   E|-------------------------------------------|
   B|-----------------0-3----------0-----0------|
   G|---------------2-------0h2p0------2----0---|
   D|------4h5/7--0------------------0----------|
   A|---------------------0---------------------|
   E|---0---------------------------------------|


Second part

     A7               F      A7           C      G           D

E|---------------0-------------------------------3-3-3-3-3-3-2-2-2-2-2-2--|
B|--------2--3--------1--1---------2------1-1-1--3-3-3-3-3-3-3-3-3-3-3-3--|
G|------0-------------2--2-------0---0----0-0-0--0-0-0-0-0-0-2-2-2-2-2-2--|
D|----2--------2---2--3--3-----2-------2--2-2-2--0-0-0-0-0-0-0-0-0-0-0-0--|
A|--------------------3--3----------------3-3-3--------------0-0-0-0-0-0--|
E|--0------------------------0--------------------------------------------|


E|---------------|
B|--4-4-4-4-4-4--|
G|--4-4-4-4-4-4--|
D|--4-4-4-4-4-4--|
A|--2-2-2-2-2-2--|
E|---------------|


Could not wait to open you up.....

E|--0-0-0-0-0-0-0-0-0-0-0-0-0-0-0-0-0-0---|
B|--0-0-0-0-0-0-0-0-0-0-0-0-0-0-0-0-0-0---|
G|--0-0-0-0-0-0-4-4-4-4-4-4-2-2-2-2-2-2---|
D|--2-2-2-1-1-1-4-4-4-4-4-4-2-2-2-2-2-2---|
A|--2-2-2-2-2-2-2-2-2-2-2-2-0-0-0-0-0-0---|
E|--0-0-0---------------------------------|


 Verse

   E|-------------------------------------------|
   B|-----------0-----0-3---------0-------------|
   G|-----0h2p0-----2-----------0---------0-----|
   D|-------------0---------2h4---------4---4---|
   A|---------------------0---------------------|
   E|--0----------------------------3-----------|


   E|-------------------------------------------|
   B|----------0-----0-3------------0------0--3-|
   G|----0h2p0-----2---------0h2p0-------2------|
   D|------------0---------------------0--------|
   A|--------------------0----------------------|
   E|-0-----------------------------------------|


   E|-------------------------------------------|
   B|-----------0-----0-3---------0-------------|
   G|-----0h2p0-----2-----------0---------0-----|
   D|-------------0---------2h4---------4---4---|
   A|---------------------0---------------------|
   E|--0----------------------------3-----------|


   E|-------------------------------------------|
   B|-----------------0-3----------0-----0------|
   G|---------------2-------0h2p0------2----0---|
   D|------4h5/7--0------------------0----------|
   A|---------------------0---------------------|
   E|---0---------------------------------------|

End
Tap to rate this tab
# A B C D E F G H I J K L M N O P Q R S T U V W X Y Z