Guitaretab - guitar tabs
Song name
# A B C D E F G H I J K L M N O P Q R S T U V W X Y Z

Powderfinger - Blind To Reason tab

Intro

E-|----------------------------|-
B-|----------------------------|-
G-|--14-14/16\14---------------|-
D-|----------------12-14/16\14-|-(x 7)
A-|----------------------------|-
E-|----------------------------|-

E-|---------------------------|-
B-|---------------15-15/17\15-|-
G-|--14-14/16\14--------------|-
D-|---------------------------|-
A-|---------------------------|-
E-|---------------------------|-

E-|-----------------|-------------|-
B-|-----------------|-------------|-
G-|-7--3-----5------|-------------|-
D-|-7--3--3--5-(x 4)|-2h3-2p0-2h3-|-
A-|-5--1--3--3------|-------------|-
E-|-------1---------|-------------|-

1st Verse
E-|--|---|---|---|-
B-|--|---|---|---|-
G-|-7|-3-|---|-5-|-
D-|-7|-3-|-3-|-5-|-(x 8)
A-|-5|-1-|-3-|-3-|-
E-|--|---|-1-|---|-
[ Tab from: http://www.guitaretab.com/p/powderfinger/67639.html ]
Chorus
E-|-5-|---|---|---|-
B-|-4-|---|---|---|-
G-|-7-|-2-|---|---|-
D-|-7-|-2-|-3-|-5-|-(x 4)
A-|-5-|-0-|-3-|-5-|-
E-|---|---|-1-|-3-|-

2nd Verse
E-|--|---|---|---|-
B-|--|---|---|---|-
G-|-7|-3-|---|-5-|-
D-|-7|-3-|-3-|-5-|-(x 8)
A-|-5|-1-|-3-|-3-|-
E-|--|---|-1-|---|-

Chorus
E-|-5-|---|---|---|-
B-|-4-|---|---|---|-
G-|-7-|-2-|---|---|-
D-|-7-|-2-|-3-|-5-|-(x 4)
A-|-5-|-0-|-3-|-5-|-
E-|---|---|-1-|-3-|-

E-|-5-|---|---|-
B-|-4-|---|---|-
G-|-7-|-2-|-7-|-
D-|-7-|-2-|-7-|-
A-|-5-|-0-|-5-|-
E-|---|---|---|-

Solo Over This Progression
E-|--|---|---|---|-
B-|--|---|---|---|-
G-|-7|-3-|---|-5-|-
D-|-7|-3-|-3-|-5-|-(x 8)
A-|-5|-1-|-3-|-3-|-
E-|--|---|-1-|---|-

Palm Muted Bit
E-|------------------|-
B-|------------------|-
G-|-7-7--10-10-5-7-7-|-
D-|-7-7--10-10-5-7-7-|-
A-|-5-5--8--8--3-5-5-|-
E-|------------------|-

Solo Chords
E-|---|---|-
B-|---|-4-|-
G-|-2-|-7-|-
D-|-2-|-7-|-
A-|-0-|-5-|-
E-|---|-5-|-

Repeat progressions above.

End
Related for Blind To Reason tab
Advertisement will be closed in 10 seconds