Song name
# A B C D E F G H I J K L M N O P Q R S T U V W X Y Z

Powderfinger - Skinny Jean tab

E/--------------------------------------------------------|
B/--------------------------------------------------------|
G/--------------------------------------------------------|
D/--------------------------------------------------------|
A/-------------5-7-7---0--3-2--0-2-3-3--------------------| palm mute
E/--------------------------------------------------------|

E/--------------------------------------------------------|
B/--------------------------------------------------------|
G/--------------------------------------------------------|
D/------------7--9-9---4-5---2-4-5------------------------|
A/------------5--7-7---2-3---0-2-3------------------------|
E/--------------------------------------------------------|

E/--------------------------------------------------------|
B/--------------------------------------------------------|
G/------------7--9-9--4--7----11--9-9---------------------|
D/------------7--9-9--4--7----11--9-9---------------------|
A/------------5--7-7--2--5----9---7-7---------------------|
E/--------------------------------------------------------|


1 Play when silent
2 Play When a Little loader and
3 Iz chorus
 only bin playin guitar 9monthz so i hope its close someone emailz me correct one if its wrong
pdmb123456789@hotmail.com thankyou
Tap to rate this tab
 
# A B C D E F G H I J K L M N O P Q R S T U V W X Y Z