Guitaretab - guitar tabs
Song name
# A B C D E F G H I J K L M N O P Q R S T U V W X Y Z

Powderfinger - Day You Come tab

Powderfinger - The Day You Come


INTRO/VERSE:
------------

(GUITAR 1)
E|----------------------------------------|
B|------8-8-8---8-8-8-8--8-8-8-8--8-8-8-8-|
G|------9-9-9---9-9-9-9--9-9-9-9--9-9-9-9-|
D|----------------------------------------|
A|----------------------------------------|
E|-0h7--------7p0------0h7--------7p0-----|

E|-----------------------------------------|
B|-------7-7-7---7-7-7-7--7-7-7-7--7-7-7-7-|
G|-------7-7-7---7-7-7-7--7-7-7-7--7-7-7-7-|
D|-----------------------------------------|
A|-----------------------------------------|
E|--0h7--------7p0------0h7--------7p0-----|

(GUITAR 2)
          Em                                 D
E|----------------------------------|----------------------------------|
B|-------8-------8--------8-------8-|-------7-------7--------7-------7-|
G|-------9-------9--------9-------9-|-------7-------7--------7-------7-|
D|-------9-------9--------9-------9-|-------7-------7--------7-------7-|
A|-x-x-x-7-x-x-x-7--x-x-x-7-x-x-x-7-|-x-x-x-5-x-x-x-5--x-x-x-5-x-x-x-5-|
E|----------------------------------|----------------------------------|



VERSE RIFF:
-----------
[ Tab from: http://www.guitaretab.com/p/powderfinger/87699.html ]
E|---------------------------------|
B|---------------------------------|
G|---------------------------------|
D|---0-2^4^2^0^4-------0-2^4^2^0^4-|
A|---------------------------------|
E|-0----------------0--------------|



CHORUS:
-------

(GUITAR 1)
E|-------------------------------------------------------|
B|----------<12>--------------------<7>------------------|
G|-----<12>--------<12>---------<7>-----------11------12-|
D|------------------------------------------11------12---|
A|-7-------------------------5------------9-----10-------|
E|-------------------------------------------------------|

(GUITAR 2)
E|--------------------------|--------------------------|
B|--------------------------|--------------------------|
G|--------------------------|--------------------------|
D|---9--9--9--9--9--9--9--9-|---7--7--7--7--7--7--7--7-|
A|-7--7--7--7--7--7--7--7---|-5--5--5--5--5--5--5--5---|
E|--------------------------|--------------------------|

E|------------------------------------------------------|
B|------------------------------------------8-----------|
G|------------------------------------------------------|
D|---7--7--7--7--7--7--7--7----9--9--9--9----9--9--9--9-|
A|-9--9--9--9--9--9--9--9----10-10-10-10-10---10-10-10--|
E|------------------------------------------------------|



BRIDGE:
-------

    Em  B5   A   C#5
E|------------------|
B|------------------|
G|-----4----2---6---|
D|-2---4----2---6---|
A|-2---2----0---4---|
E|-0----------------|

Related for Day You Come tab
Advertisement will be closed in 10 seconds