Guitaretab - guitar tabs
Song name
# A B C D E F G H I J K L M N O P Q R S T U V W X Y Z

Powderfinger - Ironical tab

N.B x means a mute strum
/ means a slide

Verse
_________
[ Tab from: http://www.guitaretab.com/p/powderfinger/93488.html ]
E-7-7-x-x-7-7-x-x-3-3-x-x-5-5---|
D-9-9-x-x-7-7-x-x-5-5-x-x-7-7---|
G-9-9-x-x-8-8-x-x-5-5-x-x-7-7---|
A-9-9-x-x-9-9-x-x-5-5-x-x-7-7---| repeated throughout the whole song
D-7-7-x-x-9-9-x-x-3-3-x-x-5-5---|
E-7-7-x-x-7-7-x-x-3-3-x-x-5-5---|

At about 0:24, this begins (something like this. Improvise)
E--------------------------|
D-----7--------------------|
G-2/4---------6------------|
A--------5/7---------------|
D--------------------------|
E--------------------------|

Ends on this
E-7-|
D-9-|
G-9-|
A-9-|
D-7-|
E-7-|



Related for Ironical tab
Advertisement will be closed in 10 seconds