Song name
# A B C D E F G H I J K L M N O P Q R S T U V W X Y Z

Power Of Zeus - It Couldnt Be Me tab

Help us improve GuitareTab! Take a short survey!
It Couldn't Be Me by Power Of Zeus
from The Gospel According To Zeus

MAIN RIFF              x5
e-----------------------|
B-----------------------|
G--2-2--------2-2-------|
D--2-2--------2-2-------|
A--0-0--3/7---0-0--3/7--|
E-----------------------|

0.30
e---------------------------------------------|
B---------------------------------------------|
G--5-5---------5-5---------7-7-------7-7------|
D--5-5---------5-5---------7-7-------7-7------|
A--3-3--6/10---3-3--6/12---5-5-------5-5------|
E-------------------------------3b--------3b--|

0.42
e-------------------------------------|
B-------------------------------------|
G-------------------------------------|
D--12-12-12-12-12-10--10-10-10-10-12--|
A--12-12-12-12-12-10--10-10-10-10-12--|
E--10-10-10-10-10-8---8--8--8--8--10--|

CHORUS 0.48  x6
e-------------|
B-------------|
G--2-2---2-2--|
D--2-2---2-2--|
A--0-0---0-0--|
E-------------|

1.05
e---------------------------------------------------------------|
B-------------------------------------------------6br-4---------|
G--7b--2-2--7br-5----2-2--8p7-5---5-7-8p7-5--2-2--------5--2-2--|
D------2-2--------7--2-2--------7------------2-2-----------2-2--|
A------0-0-----------0-0---------------------0-0-----------0-0--|
E---------------------------------------------------------------|

cont. from above
e------------------------------------------------|
B--7p6-4---4-6-7p6-4-----------4-6-7-7-4---------|
G--------5------------2-2--5-8-----------5--2-2--|
D---------------------2-2-------------------2-2--|
A---------------------0-0-------------------0-0--|
E------------------------------------------------|

3.38 OUTRO
e---------------------------------------------|
B---------------------------------------------|
G--7b--9-7-5------------12-10-8---------------|
D------------7-5----------------10-8----------|
A----------------7-5-3---------------10-8-6~--|
E---------------------------------------------|


Any corrections please comment
Thanks

http://www.powerofzeus.f9.co.uk/
Related for It Couldnt Be Me tab