Guitaretab - guitar tabs
Song name
# A B C D E F G H I J K L M N O P Q R S T U V W X Y Z

Powerman 5000 - Automatic tab

Drop D tuning

Intro
E-| ------------------------------------------------------|
B-| ------------------------------------------------------|
G-| ------------------------------------------------------|
D-| 0-2-2-5-2---2-0--2-2-------0-2-2-5-2---2-0--2-2---7-6-|
A-| 0-2-2-5-2---2-0--2-2-------0-2-2-5-2---2-0--2-2---7-6-|
D-| 0-2-2-5-2---2-0--2-2-------0-2-2-5-2---2-0--2-2---7-6-|

Pre verse
E-|-----------------------------------|
B-|-----------------------------------|
G-|-8/14-13-10-12-12---8/14-13-11-----|
D-|-----------------------------------|
A-|-----------------------------------|
D-|-----------------------------------|


Verse (Palm Muted)		Last Time

E-|--------------------------   E-|--------|
B-|--------------------------   B-|--------|
G-|--------------------------    G-|-------|
D-|-0-0----0-0----0-0----0-0-    D-|-7-6---|
A-|-0-0----0-0----0-0----0-0-    A-|-7-6---|
D-|-0-0----0-0----0-0----0-0-     D-|-7-6--|

[ Tab from: http://www.guitaretab.com/p/powerman-5000/132312.html ]
Chorus
E-| ------------------------------------------------------|
B-| ------------------------------------------------------|
G-| ------------------------------------------------------|
D-| 0-2-2-5-2---2-0--2-2-------0-2-2-5-2---2-0--2-2---7-6-|
A-| 0-2-2-5-2---2-0--2-2-------0-2-2-5-2---2-0--2-2---7-6-|
D-| 0-2-2-5-2---2-0--2-2-------0-2-2-5-2---2-0--2-2---7-6-|

Pre verse
E-|-----------------------------------|
B-|-----------------------------------|
G-|-8/14-13-10-12-12---8/14-13-11-----|
D-|-----------------------------------|
A-|-----------------------------------|
D-|-----------------------------------|

Outro
X = Palm Mute
E-| ------------------------------------------------------|
B-| ------------------------------------------------------|
G-| ------------------------------------------------------|
D-| 0-2-2-5-2---2-0--2-2-xxxx-0-2-2-5-2---2-0--2-2-xx-7-6-|
A-| 0-2-2-5-2---2-0--2-2-xxxx-0-2-2-5-2---2-0--2-2-xx-7-6-|
D-| 0-2-2-5-2---2-0--2-2-xxxx-0-2-2-5-2---2-0--2-2-xx-7-6-|
Related for Automatic tab
Automatic chords by Powerman 5000