Song name
# A B C D E F G H I J K L M N O P Q R S T U V W X Y Z

Powerman 5000 - Heroes And Villains tab

Heroes And Villains by Powerman 5000
from Korea EP
Drop D Tuning

e-----------------------|
B-----------------------|
G-----------------------|
D-----------------------|
A-00-0-0-0-0-0-2-3-3-3--|
D-00-0-0-0-0-0-2-3-3-3--|

VERSE
e-------------------------------------------|
B-------------------------------------------|
G-------------------------------------------|
D-5/7\5------------5/7\5-----------5/7-7-7--|
A-3/5\3-0-3-5-3-0--3/5\3-0-3-5-3-0-3/5-5-5--|
D-------0-3-5-3-0--------0-3-5-3-0----------|

CHORUS
e-----------------------|
B-----------------------|
G-----------------------|
D-----------------------|
A-00-0-0-0-0-0-2-3-3-3--|
D-00-0-0-0-0-0-2-3-3-3--|

Any corrections please comment
Thanks
Tap to rate this tab
# A B C D E F G H I J K L M N O P Q R S T U V W X Y Z