Song name
# A B C D E F G H I J K L M N O P Q R S T U V W X Y Z

Powerman 5000 - The End Is Over tab

Tabbed by: Joshua Garcia (halofreak731@aol.com)

Tabs for the song: The End Is Over by Powerman 5000
Please rate and let me know if you have any corrections. Thank you.

This song is from the Titan A.E. Soundtrack. It's kind of old, (and easy to play) but it is really 
awesome! The album itself isn't half bad. They have some good songs on it like Cosmic Castaway by 
Electrasy, Not Quite Paradise by Bliss 66, Over My Head by Lit, and of course this song, which is
(in my opinion) the best song off the whole album! =]

(p.s. Coincidentally tabbed on the same day of the new P5K album: Somewhere on the Other Side of 
Nowhere. Go listen to it!)


Tuning: Drop C# (C# G# C# F# A# D#)


Intro/Verse:
D#||-------------------------------------------|             \
A#||-------------------------------------------|              \
F#||-------------------------------------------|               \
C#||---3------------3------------3-------------|                \
G#||--------3------------3--2---------3--------|                 \
C#||-0----------5-0------------0----------5-0--|                  \
                                                                   \    
                                                                   /  x3  
D#||-------------------------------------------------------|      /
A#||-------------------------------------------------------|     /
F#||-------------------------------------------------------|    /
C#||---3------------3------------3-------(5-3-0-5-3-0-5-3)-|   /
G#||--------3------------3--2---------3--(5-3-0-5-3-0-5-3)-|  /
C#||-0----------5-0------------0----------5-3-0-5-3-0-5-3--| /
End with () on 3rd time


Chorus:
D#||----------------------------------------------------------|
A#||----------------------------------------------------------|
F#||----------------------------------------------------------| x2
C#||-6---5--3-0---6---5--3-0---6---5--3-0---------------------|
G#||-6---5--3-0---6---5--3-0---6---5--3-0---------------------|
C#||-6---5--3-0---6---5--3-0---6---5--3-0---5-3-0-5-3-0-5-3---|



Verse x2



Chorus



Bridge:
D#||------------------------------------------|
A#||---------------------10---7-10-7----------|
F#||---------7-------7----------------5---7---| Repeats throughout Bridge
C#||-(0)--------------------------------------|
G#||-(0)--------------------------------------|
C#||-(0)--------------------------------------|


D#||-------------------|
A#||-------------------|
F#||-------------------|
C#||-------------------|
G#||-------------------|
C#||-5-3-0-5-3-0-5-3---|



Chorus x3



Outro:
D#||---------------------------------------|
A#||---------------------------------------|
F#||---------------------------------------|
C#||-6---5--3-0---6---5--3-0---6---5--3-0--|
G#||-6---5--3-0---6---5--3-0---6---5--3-0--|
C#||-6---5--3-0---6---5--3-0---6---5--3-0--|



D#||------------------------------------------------------|
A#||------------------------------------------------------|
F#||------------------------------------------------------|
C#||--------------------------------------------------0---|
G#||--------------------------------------------------0---|
C#||--5-3-0-5-3-0-5-3-5-3-0-5-3-0-5-3-5-3-0-5-3-0-5-3-0---|




Tablature Legend
----------------
 h   - hammer-on
 p   - pull-off
 b   - bend
 r   - release bend
 *   - pinch harmonic
 x   - mute note
 .   - palm mute
 /   - slide down
 \   - slide up
Tap to rate this tab
 
# A B C D E F G H I J K L M N O P Q R S T U V W X Y Z