Song name
# A B C D E F G H I J K L M N O P Q R S T U V W X Y Z

Powerman 5000 - V Is For Vampire tab

-------------------------------------------------------------------------------
			     V is for Vampire - Powerman 5000
-------------------------------------------------------------------------------
Tabbed by: Ben Hodges
Email: mail@benhodges.net

Tuning: C# G# C# F# A# D#


--Very very simple song--


Main riff/verse/Chorus:

D#|-------------------|-------------------|
A#|-------------------|-------------------|
F#|-------------------|-------------------|
C#|-------------------|---------------12\-|
G#|-------------------|---------------12\-|
C#|--8-7-6-5-55-5-55--|-8-7-6-5-55-5------|

Bridge:

D#|----------------------------------|
A#|----------------------------------|
F#|----------------------------------|
C#|--8-8-7-7-6-6-5-5-5-5-3-5-8-5-5---|
G#|--8-8-7-7-6-6-5-5-5-5-3-5-8-5-5---|
C#|--8-8-7-7-6-6-5-5-5-5-3-5-8-5-5---|




| /  slide up
| \  slide down
| h  hammer-on
| p  pull-off
| ~  vibrato
| +  harmonic
| x  Mute note
===============================================================================
Tap to rate this tab
# A B C D E F G H I J K L M N O P Q R S T U V W X Y Z