Song name
# A B C D E F G H I J K L M N O P Q R S T U V W X Y Z

Powerman 5000 - Super Villain tab

-------------------------------------------------------------------------------
			     Super Villain - Powerman 5000
-------------------------------------------------------------------------------
Tabbed by: Ben Hodges
Email: mail@benhodges.net

Tuning: C# G# C# F# A# D#

Main riff/verse:

D#|-----------------|--------------------|
A#|-----------------|--------------------|
F#|-----------------|--------------------|
C#|------4----------|--------------------|
G#|-----------------|--------------------|
C#|--2-----2---2----|---2---2---2---2p0--|

Chorus:

D#|--------------------|--------------------|
A#|--------------------|--------------------|
F#|--------------------|--------------------|
C#|--2-x-0--2--5--2--0-|--2-x-0--2--7--2--0-|
G#|--2-x-0--2--5--2--0-|--2-x-0--2--7--2--0-|
C#|--2-x-0--2--5--2--0-|--2-x-0--2--7--2--0-|


D#|--------------------|--------|
A#|--------------------|--------|
F#|--------------------|--------|
C#|--2-x-0--2--5--2--0-|55577777|
G#|--2-x-0--2--5--2--0-|55577777|
C#|--2-x-0--2--5--2--0-|55577777|

Bridge:

D#|---------------|----------------|--------------|------------------|
A#|---------------|----------------|--------------|------------------|
F#|------------2--|-(2)------4-----|-5----4----2--|-(2)-0------------|
C#|--5----2-------|-----2-------2--|--------------|----------4--2-0--|
G#|---------------|----------------|--------------|------------------|
C#|---------------|----------------|--------------|------------------|


| /  slide up
| \  slide down
| h  hammer-on
| p  pull-off
| ~  vibrato
| +  harmonic
| x  Mute note
===============================================================================
Tap to rate this tab
 
# A B C D E F G H I J K L M N O P Q R S T U V W X Y Z