Guitaretab - guitar tabs
Song name
# A B C D E F G H I J K L M N O P Q R S T U V W X Y Z

Powerman 5000 - When Worlds Collide tab

Powerman5000
When Worlds Collide

Tuning = Drop D 

Verse #1
E-------------
B-------------
G-------------   X8
D-------------
A-3-3-3-------
D------4------

Bridge

E-------------
B-------------
G-------------
D-5-3-5-3-5---
A-5-3-5-3-5---
D-5-3-5-3-5---

Chorus

E------------------------------------------------------
B------------------------------------------------------
G------------------------------------------------------
D-5-5-3-5-3-5--5-5-3-5-3-5--5-5-3-5-3-5--5-5-3-5-8-----
A-5-5-3-5-3-5--5-5-3-5-3-5--5-5-3-5-3-5--5-5-3-5-8-----
D-5-5-3-5-3-5--5-5-3-5-3-5--5-5-3-5-3-5--5-5-3-5-8-----

Verse

Bridge

Chorus

Verse

Bridge

Chorus X2

Verse #2
E---------------------------------------------------------------
B---------------------------------------------------------------
G---------------------------------------------------------------
D-11-11-11-11-11-11-11-11--10-10-10-10-10-10-10-10--5-5-3-5-3-5-
A-11-11-11-11-11-11-11-11--10-10-10-10-10-10-10-10--5-5-3-5-3-5-
D-11-11-11-11-11-11-11-11--10-10-10-10-10-10-10-10--5-5-3-5-3-5-

E-----------
B-----------
G-----------  X2
D-5-5-3-5-8-
A-5-5-3-5-8-
D-5-5-3-5-8-

[ Tab from: http://www.guitaretab.com/p/powerman-5000/23617.html ]
Related for When Worlds Collide tab
When Worlds Collide chords by Powerman 5000