Guitaretab - guitar tabs
Song name
# A B C D E F G H I J K L M N O P Q R S T U V W X Y Z

Powerman 5000 - The Son Of X-51 tab

-------------------------------------------------------------------------------
			     POWERMAN 5000 - The Son of X-51
-------------------------------------------------------------------------------
Tabbed by: the outsider
Email: outsider999@hotmail.com

Tuning: drop d half step down

Riff 1

Eb|---------------||
Bb|---------------||
Gb|---------------||
Db|--0-33-4-/8\---||
Ab|--0-33-4-/8\---||
Db|--0-33-4-/8\---||

Riff 2

Eb|---------------||
Bb|---------------||
Gb|---------------||
Db|--0-33-0-3-4-5-||
Ab|--0-33-0-3-4-5-||
Db|--0-33-0-3-4-5-||
[ Tab from: http://www.guitaretab.com/p/powerman-5000/26775.html ]
play Riff 1 three times, then riff 2 once, then Riff 1 three times,
the third time dont play the slideup note

for the chorus repeat above, except lead in with a pick scrape

during the second part of the second verse, play this:

Eb|---------------||
Bb|---------------||
Gb|---------------||
Db|--0h3-----5----||
Ab|--0h3-----5----||
Db|--0h3-----5----||

bridge: ("watching with your arms wide open!...")

Eb|-------------------------||
Bb|-------------------------||
Gb|-------------------------||
Db|--0h3-----0h35---xxx-xxx-||
Ab|--0h3-----0h35---xxx-xxx-||
Db|--0h3-----0h35---xxx-xxx-||

That's basically the whole song, with a few variations here and
there that are easy to figure out.
Related for The Son Of X-51 tab
×
The Son Of X-51