Song name
# A B C D E F G H I J K L M N O P Q R S T U V W X Y Z

Powerman 5000 - System 1 tab

          Song: System 1:11
          By: Powerman5000
          Album: Tonight The Stars Revolt
          Tabbed By: Sarah S. (BusfaceIM@aol.com)
          Date: 10-19-99

          Standard Tuning

          This song is only like :45 seconds, so it's not very hard to learn. 
There is an echo effect with the notes.

          This is the whole song right here:
          e]-------------------------------------------------------|
          B]---1-------------------------1-------------------------|
          G]-----1----1----1----1----1-----1----1----1----1----1---|
          D]--------3----3----3----3----------3----3----3----3-----|
          A]-------------------------------------------------------|
          E]-------------------------------------------------------|

          e]-------------------------------------------------------|
          B]---1-------------------------1-------------------------|
          G]-----1----1----1----1----1-----1----1----1----1----1---|
          D]--------3----3----3----3----------3----3----3----3-----|
          A]-------------------------------------------------------|
          E]-------------------------------------------------------|
Tap to rate this tab
 
# A B C D E F G H I J K L M N O P Q R S T U V W X Y Z