Song name
# A B C D E F G H I J K L M N O P Q R S T U V W X Y Z

Powerman 5000 - Blast Off To Nowhere tab

Blast Off To Nowhere
P O W E R M A N   5 0 0 0
Tabbed By Aaron Bridgeman (rokken@sicness.net)

http://bogans.arecool.net

TUNING: Drop D down 1/2 step (Db Ab Db Gb Bb eb)

KEY:
pm. = palm mute
~   = sustain

INTRO / CHORUS:
eb|---------------------------|
Bb|---------------------------|
Gb|---------------------------|
Db|---------------------------|
Ab|-2~~--5-5--2~~--3--3--3--3-|
Db|-2~~--5-5--2~~--3--3--3--3-|

VERSE:
eb|-----------------------------------|
Bb|-----------------------------------|
Gb|-----------------------------------|
Db|-----------------------------------|
Ab|-5-5-5-6-6-6-7------5-5-5-6-6-6-3~-|
Db|-5-5-5-6-6-6-7------5-5-5-6-6-6-3~-|

OTHER CHORUS FIGURE:
eb|------------------------------------------------------------|
Bb|------------------------------------------------------------|
Gb|------------------------------------------------------------|
Db|------------------------------------------------------------|
Ab|-2--2-2--2--2-2--2-2--2-2-2--5-5--2--2-2--2--2-2-3--3--3--3-|
Db|-2--2-2--2--2-2--2-2--2-2-2--5-5--2--2-2--2--2-2-3--3--3--3-|

That's it.
Tap to rate this tab
# A B C D E F G H I J K L M N O P Q R S T U V W X Y Z