Song name
# A B C D E F G H I J K L M N O P Q R S T U V W X Y Z

Powerman 5000 - Tonight The Stars Revolt tab

Tonight The Stars Revolt!
P O W E R M A N   5 0 0 0
Tabbed By Aaron Bridgeman (rokken@sicness.net)

http://bogans.arecool.net

TUNING: Drop D down 1/2 step (Db Ab Db Gb Bb eb)

KEY:
^   = bend up
pm. = palm mute
~   = sustain

RIFF:
eb|------------------------------------|
Bb|------------------------------------|
Gb|------------------------------------|
Db|------11^----------------11^--------|
Ab|-0-0-------0-0--8^--0-0-------5-4-3-|
Db|-0-0-------0-0------0-0-------5-4-3-|
pm  . .       . .      . .

CHORUS:
eb|-------------------------------------------------|
Bb|-------------------------------------------------|
Gb|-------------------------------------------------|
Db|-------------------------------------------------|
Ab|-5-4-3--5-4-3--5-4-3-3~---5-4-3--5-4-3--5-4-3----|
Db|-5-4-3--5-4-3--5-4-3-3~---5-4-3--5-4-3--5-4-3----|

BRIDGE END:
eb|--------------------------------------|
Bb|--------------------------------------|
Gb|--------------------------------------|
Db|--------------------------------------|
Ab|--------------------------------------|
Db|-0--1--2--3--4--5-( 6 and 7 also ? )--|
listen to song for timing, palm mute first then open

Yeah!
Tap to rate this tab
# A B C D E F G H I J K L M N O P Q R S T U V W X Y Z