Song name
# A B C D E F G H I J K L M N O P Q R S T U V W X Y Z

Powerman 5000 - Operate Annihilate tab

Operate, Annihilate
P O W E R M A N   5 0 0 0
Tabbed By Aaron Bridgeman (rokken@sicness.net)

http://bogans.arecool.net

TUNING: Drop D down 1\2 step (Db Ab Db Gb Bb eb)

KEY:
pm. = palm mute
~   = sustain

BASS INTRO: (pretty damn close I think)
Gb|----------------------------|
Db|----------------------4---4-|
Ab|----------------------------|
Db|-5-5--8-8--3-3--6-6-4---4---|

VERSE:
eb|----------------------------|
Bb|----------------------------|
Gb|----------------------------|
Db|----------------------------|
Ab|---0------0------0------1~~-|
Db|-0-0----0-0----0-0----0-1~~-|
pm  .      .      .      .

CHORUS:
eb|---------------------------|
Bb|---------------------------|
Gb|---------------------------|
Db|---------------------------|
Ab|-5-5--8-8--3-3--6-6--4--4--|
Db|-5-5--8-8--3-3--6-6--4--4--|

LEAD:
eb|--------------------|
Bb|-8--11--6--9--7--7--|
Gb|--------------------|
Db|--------------------|
Ab|--------------------|
Db|--------------------|

Pretty much it
Tap to rate this tab
# A B C D E F G H I J K L M N O P Q R S T U V W X Y Z