Song name
# A B C D E F G H I J K L M N O P Q R S T U V W X Y Z

Powerman 5000 - Future That Never Was tab

Db Tuning

Intro: x4 w/tremolo effect
|------------------------------------------------|
|--------------------------------------------0---|
|-5-----4-----4-----0-2-----0-2-----0-2-5------4-|
|---4-------4---4--------------------------4-----|
|-----2-----------3-------0-------2--------------|
|------------------------------------------------|
                                        
Verse 1: x4
|-----------------5-5-3-3--3-|
|---------5------------------|
|-4---4-----4-4---2-2-0-0--0-|
|----------------------------|
|----------------------------|
|----------------------------|
                           
Chorus 1: x8
|-/7---10----10--------|
|---------10----8-8-\5-|
|----------------------|
|----------------------|
|----------------------|
|----------------------|
  
Verse 2: same verse 1 x4

Chorus 2: same chorus 1 x8

Interlude:
|--------------------------------------------------------------|
|---------------------------0----------------------------------|
|-----0-2---0-------0-2-0-5---4-------0-2---0-------0-2---0----|
|---4-------------4-----------------4-------------4------------|
|-2-------------2-----------------2-------------2--------------|
|--------------------------------------------------------------|
                                                                            
Verse 3: same verse 1 x4
Tap to rate this tab
# A B C D E F G H I J K L M N O P Q R S T U V W X Y Z