Song name
# A B C D E F G H I J K L M N O P Q R S T U V W X Y Z

Powerspace - Sleep Everyone tab

I love this band, I love this song, I hope you enjoy the tab!!!!
P.S Thanks Tom for the help!!

symbols:
/ = slide
h = hammer-on

0:00 – 0:33 Intro
4x
|-----------------------------------|----------------------------------|
|----0---0---0---0---0---0---0------|----0---0---0---0---0---0---0---0-|
|------4-------4-------4-------6\4--|------4-------4-------4-------4---|
|--6-------6-------6-------6--------|--2-------2-------2-------2-------|
|-----------------------------------|----------------------------------|
|-----------------------------------|----------------------------------|
Abm                                  E
|----------------------------------|----------------------------------|
|----0---0---0---0---0---0---0---0-|----0---0---0---0---0---0---0---0-|
|------4-------4-------4-------4---|------3-------3-------3-------3---|
|--4-------4-------4-------4-------|--4-------4-------4-------4-------|
|----------------------------------|----------------------------------|
|----------------------------------|----------------------------------|
B                                   F#
Last time play:
|-------------------------------------|
|----0---0---0--------0--------0------|
|------3-------3h4------4h6------6h8--|
|--4-------4--------4--------4--------|
|-------------------------------------|
|-------------------------------------|

0:34-0:53 Prechorus
2x
|-------------------------------------|--------------------------------------|
|----0---0---0--------0---0---0-------|----0----0---0----0---0----0---0----0-|
|------8-------8h9------9-------9h11--|------11-------11-------11-------11---|
|--6-------6--------6-------6---------|--9--------9--------8--------8--------|
|-------------------------------------|--------------------------------------|
|-------------------------------------|--------------------------------------|
Abm                                    E
|-----------------------------------|-----------------------------------|
|----0---0---0--------0---0---0---0-|----0---0---0---0---0---0---0------|
|------8-------8h9------9-------9---|------8-------8-------6-------6h8--|
|--6-------6--------6-------6-------|--9-------9-------8-------8--------|
|-----------------------------------|-----------------------------------|
|-----------------------------------|-----------------------------------|
B F#

0:54 – 1:55 Repeat “Intro” 6x

1:55 – 2:17 Repeat “Prechorus” 2x

2:18 – 2:42 Bridge
1.5x
|----------------------------------|----------------------------------|
|----------------------------------|----------------------------------|
|----9---9---9---9---9---9---9---9-|----6---6---6---6---6---6---6---6-|
|------6-------6-------6-------6---|------9-------9-------8-------8---|
|--7-------7-------7-------7-------|--9-------9-------9-------9-------|
|----------------------------------|----------------------------------|
Emajor                               F#sus4            F#major
|---------------------------------------|---------------------------------------|
|---------------------------------------|---------------------------------------|
|---8----8---8----8----8----8----8----8-|----8----8----8----8----8---8----8---8-|
|-----11-------11--------11--------11---|------11--------11--------9--------9---|
|-9--------9--------10--------10--------|-11--------11--------11-------11-------|
|---------------------------------------|---------------------------------------|
F#add6              Gflat5aug6            Absus4                       Abm

2:42 – 3:03 Last Chorus
2x
Strum:
|--4---------|--0----------|--------------|--------------|
|--4---------|--0----------|--0-----------|--------------|
|--4---------|--4----------|--4-----------|--3-----------|
|--6---------|--2----------|--4-----------|--4-----------|
|--6---------|--2----------|--2-----------|--4-----------|
|--4---------|--0----------|--------------|--2-----------|
Abm               Eadd5         B5             F#

3:04 – 3:13 Repeat “Prechorus” 1x

3:13 – 3:41 (end) Repeat “Last Chorus” 2x
Tap to rate this tab
# A B C D E F G H I J K L M N O P Q R S T U V W X Y Z