Song name
# A B C D E F G H I J K L M N O P Q R S T U V W X Y Z

Powerspace - Right On Right Now tab

Right On Right Now By Powerspace (Fueled by Ramen)

video here at http://youtube.com/watch?v=wCSyLFHXVDo

Intro

Gtr1
E|-------------------|
B|-------------------|
G|-9-9-8-9-9-8-9-9-8-|
D|-9-9-9-9-9-9-9-9-9-|
A|-7-7-7-7-7-7-7-7-7-|
e|-0-0-0-0-0-0-0-0-0-|

Gtr2

E|---
B|---
G|-9- X as many times needed
D|-9-
A|-7-
e|-0-

Intro/Chorus

Gtr1

E

E|---------|
B|---------|
G|-9-9-8-9-|
D|-9-9-9-9-|
A|-7-7-7-7-|
e|-0-0-0-0-|

B

E|--------------|
B|-4-5-4-4-4-5--|
G|-4-4---4-4----|
D|-4-4---4-4----|
A|-2-2---2-2----|
e|--------------|

C#m

E|-------------|
B|-5-4-4-4-5-5-|
G|-6---6-6---6-|
D|-6---6-6---6-|
A|-4---4-4---4-|
e|-------------|

A

E|-------------|
B|-5-4-5-4-5---|
G|-2-2-2---2---|
D|-2-2-2---2---|
A|-0-0-0---0---|
e|-------------|


Gtr2

E

E|----
B|----
G|-9--
D|-9--
A|-7--
e|-0--

B

E|---
B|---
G|-4-
D|-4-
A|-2-
e|---

C#m

E|---
B|---
G|-6-
D|-6-
A|-4-
e|---

A

E|---
B|---
G|-2-
D|-2-
A|-0-
e|---

Verse (accent while alternating those B notes (4s)

C#m

E|-----------------|
B|-----------------|
G|-----44444-------|
D|-2-2--------2----|
A|-4-4--------4----|
e|-----------------|

B

E|---------------|
B|---------------|
G|-----44444-----|
D|-4-4--------4--|
A|-2-2--------2--|
e|---------------|

A

E|---------------|
B|---------------|
G|----44444------|
D|-2-2------2----|
A|-0-0------0----|
e|---------------|

B again with same pattern


Chorus same as above

Verse

Pre-Chorus/interlude

E|---------|
B|---------|
G|-4444444-
D|-4444444-
A|-2222222-
e|---------

E|--------------------|
B|--------------------|
G|-11-9-88-999--xxx-9-|
D|--x-x-xx-xxx--xxx-9-|
A|--9-7-66-777--xxx-7-|
e|--------------------|

E|---------|
B|---------|
G|-4444444-
D|-4444444-
A|-2222222-
e|---------

E|--------------------|
B|--------------------|
G|-11-9-8s13--999-11--|
D|--x-x-x--x--xxx--x--|
A|--9-7-7s11--777--9--|
e|--------------------|

Chorus

E|---
B|-5-
G|-4-
D|-2-
A|---
e|---

E|---
B|---
G|-4-
D|-4-
A|-2-
e|---

E|---
B|---
G|-6-
D|-6-
A|-4-
e|---

E|---
B|---
G|-2-
D|-2-
A|-0-
e|---

Pre-Bridge

E|---
B|---  Let ring
G|-9-
D|-9-
A|-7-
e|-0-

E|----------------------5-------------|
B|----------5-s7--------5----9-10-9-5-|
G|--9-----4-4------6----6----9--9-9-4-|
D|--9-----4--------6-xx-7--x-7--7-7-2-|
A|--7-----2--------4-xx----x----------|
e|-0--0-------------------------------|
   *  *

Bridge *(strike the 4 and 5 on the B string while playing the power chords)
         ..find the timing for it
E|----------|
B|-5-*4-*5--|
G|-4--------|
D|-2--------|
A|----------|
e|----------|

E|--------|
B|-5-4-4--|
G|-4------|
D|-4------|
A|-2------|
e|--------|

E|---------|
B|-5-4-5-7-|
G|-6-------|
D|-6-------|
A|-4-------|
e|---------|

E|---------|
B|-5-4-5-4-|
G|-2-------|
D|-2-------|
A|-0-------|
e|---------|

P.S Gtr2 plays normal chords..they are E B C#m and A


Lyrics

Chorus/Intro
My feet are shuffling
The clouds roll in, the wind at my neck
But every day's a thunderstorm
I'm always walking back these days

Verse
I live to pass time
It makes sense in my mind
But that's not a reason
To keep this weak heart beating

And I know that this place
And these walls and this race
Will melt down in one breath
And leave it all behind me

Chorus
My feet are shuffling
The clouds roll in, the wind at my neck
But every day's a thunderstorm
I'm always walking back these days
My knees are quivering
The cliff's edge so inviting, yeah
The lightning hits my chest
But the shock is so routine for me these days

Verse
You stand up and I bow
Right on, right now
I'm always hoping for some enjoyment from disappointment

interlude
I can feel the misery from some place deep inside of me

Chorus
My feet are shuffling
The clouds roll in, the wind at my neck
But every day's a thunderstorm
I'm always walking back these days
My knees are quivering
The cliff's edge calls me
The lightning hits my chest
But the shock is so routine for me these days

You make my bed, I'll make your day
I'll write down every word you say
And stuff it in a record sleeve
And make sure no one ever, ever finds it

Can you save me now?
Someone, somehow
Right on, right now


Website for this band

http://www.powerspacetheband.com/
http://www.myspace.com/powerspace
Tap to rate this tab
# A B C D E F G H I J K L M N O P Q R S T U V W X Y Z