Song name
# A B C D E F G H I J K L M N O P Q R S T U V W X Y Z

Powerwolf - We Came To Take Your Souls tab

----------------------------------------------------------------------------
			     We Come To Take Your Souls - Powerwolf
----------------------------------------------------------------------------
Tabbed by:andi3o3
Email:andreas.bieder@gmx.de

Tuning:Standard

                                                     
        | Riff 1:                                        |
       ||                 3x ||                                         
e|-----||--------------------||--------------------------|
B|-----||--------------------||--------------------------|
G|--8--||-6--8---12---11--9--||--6--8--------------------|
D|--8--||-6--8---12---11--9--||--6--8--------------------|
A|--6--||-4--6---10---9---7--||--4--6--------------------|
E|-----||------0----0---0----||--------000-000--00000----|
P.M.           .    .   .              ... ...  .....

   Riff 2:
 //                                                  \\ 3x
 ||                 3x ||                            ||
e||--------------------||-------------------14\------||
B||--------------------||-------------------14\------||
G||--6--8---12---11--9-||--6--8----------------------||
D||--6--8---12---11--9-||--6--8----------------------||
A||--4--6---10---9---7-||--4--6----------------------||
E||-------0----0---0---||--------000-00000-----------||
P.M.      .    .   .             ... .....           

   Riff 3:
  |                                                        |
e||---------------|---------------------------14\-----14\--|| 2x
B||---------------|---------------------------14\-----14\--||
G||--6--8----6--5-|--4-4-4-4-6-6-6-6-6-6\------------------||
D||--6--8----6--5-|--4-4-4-4-6-6-6-6-6-6\------------------||
A||--4--6----4--3-|--2-2-2-2-4-4-4-4-4-4\------------------||
E||---------------|-----------------------0000----0000-----||
P.M.                   . .   . .   . .    ....    ....

  Riff 4:                                               
 |                                                       |
e|----------------|--------------------------------------|
B|----------------|--------------------------------------|
G|--6--8-----6--5-|--4-4-4-4-6-6-6-6-6-6-8-8-8-8-8-8-8-8-|
D|--6--8-----6--5-|--4-4-4-4-6-6-6-6-6-6-8-8-8-8-8-8-8-8-|
A|--4--6-----4--3-|--2-2-2-2-4-4-4-4-4-4-6-6-6-6-6-6-6-6-|
E|----------------|--------------------------------------|
P.M.                   . .   . .   . .   . . . . . . . .

  Riff 5:                                              
 |                                                   |
e|-------------------------|-------------------------|
B|-------------------------|-------------------------|
G|-------4----6----9-8-6---|-------4----6---6-8-9-8--|
D|--6----4----6----9-8-6-6-|--6----4----6---6-8-9-8--|
A|--6----2----4----7-6-4-6-|--6----2----4---4-6-7-6--|
E|--4--------------------4-|--4----------------------|

 Riff 2   2x
 Riff 3   3x
 Riff 4
 Riff 5
 Riff 1

 then:
 //                                                                  \\2x
 ||                 3x||                                             ||
e||-------------------||---------------------------14\-----14\-------||
B||-------------------||---------------------------14\-----14\-------||
G||--6--8---12--11--9-||--4-4-4-4-6-6-6-6-6-6\-----------------------||
D||--6--8---12--11--9-||--4-4-4-4-6-6-6-6-6-6\-----------------------||
A||--4--6---10--9---7-||--2-2-2-2-4-4-4-4-4-4\-----------------------||
E||-------0----0--0---||-----------------------0000----0000----------||
P.M.      .    .  .         . .   . .   . .    ....    .... 


   end:                                                            
                                             
e||--------------------------14\-----14\--------|----------------|--------
B||--------------------------14\-----14\--------|----------------|--------
G||--4-4-4-4-6-6-6-6-6-6\-----------------------|--4---6---8-----|---8\---
D||--4-4-4-4-6-6-6-6-6-6\-----------------------|--4---6---8-----|---8\---
A||--2-2-2-2-4-4-4-4-4-4\-----------------------|--2---4---6-----|---6\---
E||-----------------------0000----0000----------|----------------|--------
P.M.   . .   . .   . .    ....    ....

have fun:-)

************************************
| .   palm mute
| /   slide up
| \   slide down
| h   hammer-on
| p   pull-off
| ~   vibrato
| +   harmonic
| x   Mute note
| b   Bend
| pb  Pre-bend
| br  Bend release
| pbr Pre-bend release
| brb Bend release bend

************************************
www.powerwolf.net
Tap to rate this tab
 
# A B C D E F G H I J K L M N O P Q R S T U V W X Y Z