Powerwolf - In Blood We Trust tab

----------------------------------------------------------------------------
In Blood We Trust - Powerwolf
----------------------------------------------------------------------------

Tabbed by: andi3o3
Email: andreas.bieder@gmx.de

Tuning: Half-step down (Eb Ab Db Gb Bb eb)


  Intro/Chorus:

eb|-----------------| 2x
Bb|-----------------|
Gb|-----------------|
Db|---7--2--10-9----|
Ab|---7--2--10-9----|
Eb|---5--0--8--7----|

  Riff 1:

eb|----------------------------------| 2x
Bb|----------------------------------|
Gb|----------------------------------|
Db|-------------------3-3-3--2-2-2---|
Ab|-------------------3-3-3--2-2-2---|
Eb|-0000000033333333--1-1-1--0-0-0---|
    ................  . .    . .
    \  4x  /\  2x  /

                                        
                                       
  Riff 2:
                           (2x)        1st end: 2nd end:  
eb|------------------------------------ ------| ------|
Bb|------------------------------------ ------| ------|
Gb|---------------------5-55-5-55------ ------| ------|
Db|-2-22-2-22-2-22-2-22-5-55-5-55-3-33- -2-22-| -5-55-|
Ab|-2-22-2-22-2-22-2-22-3-33-3-33-3-33- -2-22-| -5-55-|
Eb|-0-00-0-00-0-00-0-00-----------1-11- -0-00-| -3-33-|    
      ..   ..   ..   ..   ..   ..   ..     ..      ..



  Riff 3:

eb|------------------------------------------|
Bb|------------------------------------------|
Gb|------------------------------------------|
Db|------------------------------------------|
Ab|------------------------------------------|
Eb|-3333333388888888222222226666666600000000-|
    ........................................
    \  2x  /        \  3x  /         


  Riff 4:

eb|--------------|
Bb|--------------|
Gb|--9--8--7-----|
Db|--9--8--7--7--|
Ab|--7--6--5--7--|
Eb|-----------5--|


Intro/Chorus 2x, but 2nd time like this:
(alternative end)

eb|---------------------------|
Bb|---------------------------|
Gb|---------------------------|
Db|--7-2-10-9-9-9-9-9-9-9-9---|
Ab|--7-2-10-9-9-9-9-9-9-9-9---|
Eb|--0-5-8--7-7-7-7-7-7-7-7---|
              . . . . . . .

Riff 2       2x  
Riff 3
Riff 4
Intro/Chorus 4x (4th time again with alternative ending)

 then:
                              3x 
eb|-----------------------------| then |-----|
Bb|-----------------------------| hang |-----|
Gb|-2---2-4-5---5-6-10--15-14---| on   |-----|
Db|-2---2-4-5---5-6-10--15-14---| and  |--2--|
Ab|-0---0-2-3---3-5-8---13-12---| hold:|--2--|
Eb|-----------------------------|      |--0--|


  Outro:

                                                    2x
eb|---------------------------------------|------------|
Bb|---------------------------------------|------------|
Gb|--14-12-10---12-10-9---10-9-7---9-7-5--|------------|
Db|---------------------------------------|--7-7777-7--|
Ab|---------------------------------------|--7-7777-7--|
Eb|---------------------------------------|--5-5555-5--|
                                             . .... .


eb|---------------------------------------|------------------|
Bb|---------------------------------------|------------------|
Gb|--14-12-10---12-10-9---10-9-7---9-7-5--|------------------|
Db|---------------------------------------|--10-10101010-10--|
Ab|---------------------------------------|--10-10101010-10--|
Eb|---------------------------------------|--8--8-8-8-8--8---|
                                             .  . . . .  . 


  |                                3x     |            
eb|---------------------------------------|---------------|
Bb|---------------------------------------|---------------|  
Gb|--14-12-10---12-10-9---10-9-7---9-7-5--|---------------|
Db|---------------------------------------|--7-7777-7--7--|  hold last
Ab|---------------------------------------|--7-7777-7--7--|  chord
Eb|---------------------------------------|--5-5555-5--5--|
                                             . .... .

************************************
... Palm Muted
************************************
Good song! Enjoy it!
Tap to rate this tab
 
# A B C D E F G H I J K L M N O P Q R S T U V W X Y Z