Song name
# A B C D E F G H I J K L M N O P Q R S T U V W X Y Z

Powerwolf - Catholic In The Morning Satanist At Night tab

----------------------------------------------------------------------------
Catholic in the morning , satanist at night - Powerwolf
----------------------------------------------------------------------------

Tabbed by: 5torm87

riff 1 
 
D|--------------------| 2x
A|--------------------|
F|---------3--6-------|
C|---1-----3--6--8-8--|
G|---1-----1--4--6-6--|
D|--------------------|
     2x         (P.M.)

All we pray....                 



riff 2

D|------------------------------------------| 2x
A|------------------------------------------|
F|--------------------------------8--6/8---8|
C|---1111111111111111---------8-8-8--6/8---8|
G|-------------------11114444-6-6-6--4/6---6|
D|------------------------------------------|
     ----------P.M.--------------           

    yaaaaaaaaaaaaaaaaaaaaaaaa...........oh!




riff 3

D|--------------------------------------------------| 2x
A|--------------------------------------------------|
F|--------------------------------------6/8--8------|
C|---1-111-1-111-111-------------8-888--6/8--8------|
G|-------------------1-111-4-444-6-666--4/6--6------|
D|--------------------------------------------------|
     -------2x------
     -----------------P.M.------------       

Invocate the crucified...




riff 4 

D|--------------------------------------------------------------------------|
A|--------------------------------------------------------------------------|
F|-----------------------------------------------------------------6-------6|
C|-----------------------------------------------------------------6-------6|
G|-------------7766--6---6-6------------------6677--8---8-8-8-8----4---4-4-4|
D|-666666664444------6---6-6------666666664444------6---6-6-6-6-------------|
   ------P.M.------               ------P.M.------                     P.M.

In fire born...


then riff 1   1x

then this awesome part

D|------------------------------------------------------------------------|
A|------------------------------------------------------------------------|
F|-------------------------------6--------6--6-----4-----4-----6----6-----|
C|-------8-----4--------4--4-----6--6-6-6-6--6-------6-6---6-6---8-8--8-8-|
G|--6----8-----4--4-4-4-4--4-----4--4-4-4-4--4----------------------------|
D|--6----6-----2--2-2-2-2--2----------------------------------------------|

Agnus totus, Deus diabolus...

D|----------------------------|
A|----------------------------|
F|--------------------6----8--|
C|--6--------6--6-----6----8--|
G|--6--6-6-6-6--6-----4----6--|
D|--4--4-4-4-4--4-----4----6--|



then play 

riff 2  x1
riff 3  x2
riff 4  x1
then again this awesome part!

then this riff...maybe a solo?

D|------------------------------------------------------|
A|------------------------------------------------------|
F|-----------------------------------5------------------|
C|----8--8-11-10---8--8-11-10---6--6---8---6--66---88-8^|
G|------------------------------------------------------|
D|------------------------------------------------------|
                                                      bend


meanwhile the second guitar plays like Ab and Gb in speed


then comes this closing part of the "solo"

D|-----------------------|
A|-----------------------|
F|--------------8--------|
C|------8---6---8--------|
G|--4---8---6---6--------|
D|--4---6---4---6--------|

(Yes!) Catholic! (No!) Catholic!
(Yes!) Catholic! (No!) Satanist!


now some speed again

D|--------------------------------------------------------------------|
A|--------------------------------------------------------------------|
F|--------------------------------------------------------------------|
C|--------------------------------------------------------------------|
G|--------------------------88888888------------------------------8---|
D|--666666666666666688888888--------------666666666666666688888888----|

    -------------------------P.M.---------------------------------


now play

riff 3  x2
riff 4  x1
riff 1  x1


AND FINISH WITH THIS


D|-------------------------------------| 
A|-------------------------------------|
F|---------3--6--------6-4-------------|
C|---1-----3--6--------6-4-6-4/6-\0----|
G|---1-----1--4------------6-4/6-\0----|
D|-----------------------------4-\0----|
     2x


I love this song! enjoy it!!!!
Tap to rate this tab
# A B C D E F G H I J K L M N O P Q R S T U V W X Y Z