Song name
# A B C D E F G H I J K L M N O P Q R S T U V W X Y Z

Praise And Worship - We Bring The Sacrifice Of Praise tab

We Bring The Sacrifice Of Praise
Tuning: Standard (eBGDAE)
Tabbed by: Jeremy

~Intro & Ending~
e|---------------------------------------------------------------------------|
B|--10~--12~--10~----------------------10------------------------------------|
G|-------------------7-9-11-12---11s12-------7h9-11-11~-(12p11)9~-7~---------|
D|---------------------------------------------------------------------------|
A|---------------------------------------------------------------------------|
E|---------------------------------------------------------------------------|

~Verse 1~  
e|---------------------------------------------------------------------------|
B|----------------------------------------------10---------------------------|
G|----------------------------7-9-11-12---11s12-------7h9-11-11~-9~-7~-------|
D|---------------------------------------------------------------------------|
A|---------------------------------------------------------------------------|
E|---------------------------------------------------------------------------|
  "the sacrifi-ces of joy..." 

--------------------------------------
-Order-
INTRO
VERSE 1
ENDING
--------------------------------------
(12p11) = Played only for the ending
--------------------------------------
Tap to rate this tab
 
# A B C D E F G H I J K L M N O P Q R S T U V W X Y Z