Guitaretab - guitar tabs
Song name
# A B C D E F G H I J K L M N O P Q R S T U V W X Y Z

Praise - Last Resort tab

Artist: Papa Roach
Title: Last Resort
Tuning: Standard

(I learned how to play this song when i first started playing guitar this way and it 
much easier this way (in Standard) and sounds better too.)

Gtr.1 Ė Electric
Gtr.2 - Electric


Cut my life into pieces. This is my last resort.
-Intro-
 Gtr.1 (dist.)
|-----------------------------------------------------------|
|-----------------------------------------------------------|
|-----------------------------------------------------------|
|-1414-----------1212----------1010-----------9-9----1212---|
|-1414-----------1212----------1010-----------9-9----1212---|
|-1212-----------1010----------8-8------------7-7----1010---|
Suffocation. No breathing. Donít give a fuck if I cut my arm bleeding.

-Pre-Verse-
  Gtr.1 (dist.)
||-----------------------------------------------------------||
||-----------------------------------------------------------||
||-----------------------------------------------------------||
||-1414-----------1212----------1010-----------9-9----1212---||
||-1414-----------1212----------1010-----------9-9----1212---||
||-1212-----------1010----------8-8------------7-7----1010---||
| Gtr.2 (dist.)                                               | [2x]
||-----------------------------------------------------------||
||-----------------------------------------------------------||
||-----------------------------------------------------------||
||--------9--------------9-------------9--------------9------||
||-7-10910-10910----10910-10910---10910-10910----10910-10910-||
||----------------10------------8--------------7-------------||
This is my last resort.

-Verse-
  Gtr.1 (dist.)
||-----------------------------------------------------------||
||-----------------------------------------------------------||
||-----------------------------------------------------------||
||-1414-----------1212----------1010-----------9-9----1212---||
||-1414-----------1212----------1010-----------9-9----1212---||
||-1212-----------1010----------8-8------------7-7----1010---||
| Gtr.2 (dist.)                                               | [3x]
||-----------------------------------------------------------||
||-----------------------------------------------------------||
||-----------------------------------------------------------||
||--------9--------------9-------------9--------------9------||
||-7-10910-10910----10910-10910---10910-10910----10910-10910-||
||----------------10------------8--------------7-------------||
   * * ** ** **   * * ** ** **  * * ** ** **   * * ** ** **
1. Cut my life into pieces. I reach my end resort. Suffocation. No breathing.
2. Donít give a fuck if I cut my arm bleeding. Do you even care if I die bleeding.
3. Would it be wrong, would it be right. If took my life tonight. Chances are dynamite.

-Post-Verse-
|------------------------------------------------------------|
|------------------------------------------------------------|
|------------------------------------------------------------|
|-1414-----------1212----------1010---------9-9-9-9-12121212-|
|-1414-----------1212----------1010---------9-9-9-9-12121212-|
|-1212-----------1010----------8-8----------7-7-7-7-10101010-|
|                                                            |
|------------------------------------------------------------|
|------------------------------------------------------------|
|------------------------------------------------------------|
|--------9--------------9-------------9----------------------|
|-7-10910-10910----10910-10910---10910-109109----------------|
|----------------10------------8-----------------------------|
  * * ** ** **   * * ** ** **  * * **
Mutilation out of sight. And Iím contemplating suicide.
[ Tab from: http://www.guitaretab.com/p/praise/22054.html ]
-Chorus-
  Gtr.1 (dist.)
||--------------------------------------------------------------------||
||--------------------------------------------------------------------||
||--------------------------------------------------------------------||
||-141414141414141410101010101010105-5-5-5-5-5-5-5-5-5-5-5-5-5-5-5----||
||-141414141414141410101010101010105-5-5-5-5-5-5-5-5-5-5-5-5-5-5-5----||
||-12121212121212128-8-8-8-8-8-8-8-3-3-3-3-3-3-3-3-3-3-3-3-3-3-3-3----||
| Gtr.2 (dist.)                                                        | [2x]
||--------------------------------------------------------------------||
||--------------------------------------------------------------------||
||---------------------------------9-9-9-9-12121212141414141111111111-||
||-14141414141414141010101010101010x-x-x-x-x-x-x-x-x-x-x-x-x-x-x-x-x--||
||-141414141414141410101010101010107-7-7-7-10101010121212129-9-9-9-9--||
||-12121212121212128-8-8-8-8-8-8-8------------------------------------||
1. Cause Iím losing my sight. Losing my mind. Wish somebody would me Iím fine.
2. Losing my Sight. Losing my mind. Wish somebody would tell me Iím fine.

-Pre-Verse- [1x]

-Verse- [3x]
1. I never realized I was meant to (?). Till it was too late. And I was empty within. Hurry
2. Feeding to chaos. No living in sin. Devilís spiral. Where do I begin?
3. It all started when I lost my mother. No luck for myself. And no luck for another. Searching.

-Post-Verse-
To find a lover. Born a higher level. Finding. Nothing but questions and devils.

-Chorus- [2x]
1. Cause Iím losing my sight. Losing my mind. Wish somebody would me Iím fine.
2. Losing my Sight. Losing my mind. Wish somebody would tell me Iím fine.

-Post-Chorus-
 Gtrs.1&2 (dist.)
|-----------------------------------------------------------------|
|-----------------------------------------------------------------|
|-----------------------------------------------------------------| [2x]
|-141414141414141410101010101010105-5-5-5-5-5-5-5-9-9-9-9-9-9-9-9-|
|-141414141414141410101010101010105-5-5-5-5-5-5-5-9-9-9-9-9-9-9-9-|
|-12121212121212128-8-8-8-8-8-8-8-3-3-3-3-3-3-3-3-7-7-7-7-7-7-7-7-|
1. Nothings alright. Nothing is fine.
2. Iím running and Iím crying.

|---------------------------------------------------------------------|
|---------------------------------------------------------------------|
|---------------------------------------------------------------------|
|-141414141414-14145-5-5-5-5-5--5-5---1010101010-10109-9-9-9-9-9--9-9-|
|-141414141414-14145-5-5-5-5-5--5-5---1010101010-10109-9-9-9-9-9--9-9-|
|-121212121212-12123-3-3-3-3-3--3-3---8-8-8-8-8--8-8-7-7-7-7-7-7--7-7-|
Iím crying. Iím crying.

|---------------------------------------------------------------------|
|---------------------------------------------------------------------|
|---------------------------------------------------------------------|
|-141414141414-14145-5-5-5-5-5--5-5---1010101010-10109-9-9-9-12121212-|
|-141414141414-14145-5-5-5-5-5--5-5---1010101010-10109-9-9-9-12121212-|
|-121212121212-12123-3-3-3-3-3--3-3---8-8-8-8-8--8-8-7-7-7-7-10101010-|
Iím crying. Iím crying.

-Interlude-
 Gtr.1 (dist.)
|-----------------------------------------------------------|
|-----------------------------------------------------------|
|-----------------------------------------------------------| [4x]
|-1414-----------1212----------1010-----------9-9----1212---|
|-1414-----------1212----------1010-----------9-9----1212---|
|-1212-----------1010----------8-8------------7-7----1010---|
1. I. Canít. go. On.
2. Liv. Ing. This. Way.
3. Cut my life into pieces. This is my last resort.
4. Suffocation. No breathing. Donít give a fuck if I cut my arm bleeding.

-Verse- [1x] (minus the palm muting)
Would it be wrong, would it be right. If took my life tonight. Chances are dynamite.

-Post-Verse-
Mutilation out of sight. And Iím contemplating suicide.

-Chorus- [2x]
1. Cause Iím losing my sight. Losing my mind. Wish somebody would me Iím fine.
2. Losing my Sight. Losing my mind. Wish somebody would tell me Iím fine.

 Gtrs.1&2 (dist.)
|-----------------------------------------------------------------|
|-----------------------------------------------------------------|
|-----------------------------------------------------------------| [2x]
|-141414141414141410101010101010105-5-5-5-5-5-5-5-9-9-9-9-9-9-9-9-|
|-141414141414141410101010101010105-5-5-5-5-5-5-5-9-9-9-9-9-9-9-9-|
|-12121212121212128-8-8-8-8-8-8-8-3-3-3-3-3-3-3-3-7-7-7-7-7-7-7-7-|
1. Nothings alright. Nothing is fine.
2. Iím running and Iím crying.

-Chorus- [2x]
1. I! Canít! Go! On!
2. Liv! Ing! This! Way!

 Gtrs.1&2 (dist.)
|--------------------------------------------------------------------|
|--------------------------------------------------------------------|
|--------------------------------------------------------------------|
|-141414141414141410101010101010105-5-5-5-5-5-5-5-1414-----1010------|
|-141414141414141410101010101010105-5-5-5-5-5-5-5-1414-----1010------|
|-12121212121212128-8-8-8-8-8-8-8-3-3-3-3-3-3-3-3-1212-----8-8-------|
                                  * * * * * * * *

|------------------------------------|
|------------------------------------|
|------------------------------------|
|-5-5-5-5-5-5-5-5-5-5-5-5-5-5-5-5----|
|-5-5-5-5-5-5-5-5-5-5-5-5-5-5-5-5----|
|-3-3-3-3-3-3-3-3-3-3-3-3-3-3-3-3----|
|                                    |
|------------------------------------|
|------------------------------------|
|-9-9-9-9-12121212141414141111111111-|
|-x-x-x-x-x-x-x-x-x-x-x-x-x-x-x-x-x--|
|-7-7-7-7-10101010121212129-9-9-9-9--|
|------------------------------------|
Canít go on.

-Chorus- [2x]
1. Living this way.
2. Nothings al...

 Gtrs.1&2 (dist.)
|-----------------------------------|
|-----------------------------------|
|-----------------------------------|
|-14141414141414141414141414141414\-|
|-14141414141414141414141414141414\-|
|-12121212121212121212121212121212\-|
...right!
Related for Last Resort tab