Song name
# A B C D E F G H I J K L M N O P Q R S T U V W X Y Z

Praise - Wonderful Cross tab

ok heres how my teacher and I play this song.

--verse1A--
e|----------------------------------|
b|----------------------------------|
g|--7-7-9-9/11-9-11-11/12-11-9-9/11-|
d|--0-0-0-0----0-0--0-----0--0-0----|
a|----------------------------------|
e|----------------------------------|


e|----------------------------------|
b|----------------------------------|
g|--11-11-11-11/12-11-9-7-6-7-9-----|
d|--0--0--0--0-----0--0-0-0-0-7-----|
a|----------------------------------|
e|----------------------------------|

--verse1B--
e|----------------------------------|
b|----------------------------------|
g|--7-7-9-9/11-9-11-11/12-11-9-9/11-|
d|--0-0-0-0----0-0--0-----0--0-0----|
a|----------------------------------|
e|----------------------------------|


e|----------------------------------|
b|----------------------------------|
g|--11-11-11-9-7-7-9-11-9-7---------|
d|--0--0--0--0-0-0-0-0--0-0---------|
a|----------------------------------|
e|----------------------------------|

--chorus--
    G  G  G  D  D  D
e|--3--3--3--2--2--2--|
b|--0--0--0--3--3--3--|
g|--0--0--0--2--2--2--|
d|--0--0--0--0--0--0--|
a|--2--2--2--x--x--x--|
e|--3--3--3--x--x--x--|

    G  G  G  D  D  D
e|--3--3--3--2--2--2--|
b|--0--0--0--3--3--3--|
g|--0--0--0--2--2--2--|
d|--0--0--0--0--0--0--|
a|--2--2--2--x--x--x--|
e|--3--3--3--x--x--x--|

    G  G  G  D  D  D  A  A  A
e|--3--3--3--2--2--2--0--0--0|
b|--0--0--0--3--3--3--2--2--2|
g|--0--0--0--2--2--2--2--2--2|
d|--0--0--0--0--0--0--2--2--2|
a|--2--2--2--x--x--x--0--0--0|
e|--3--3--3--x--x--x--x--x--x|

--verse2--
e|----------------------------------|
b|--7-7-8-8/10-8-10-10/12-11-9-9/11-|
g|--7-7-9-9/11-9-11-11/12-11-9-9/11-|
d|--0-0-0-0----0-0--0-----0--0-0----|
a|----------------------------------|
e|----------------------------------|


e|----------------------------------|
b|--10-10-10-11/12-10-8-7-5-7-------|
g|--11-11-11-11/12-11-9-7-6-7-9-----|
d|--0--0--0--0-----0--0-0-0-0-7-----|
a|----------------------------------|
e|----------------------------------|


e|----------------------------------|
b|--7-7-8-8/10-8-10-10/12-11-9-9/11-|
g|--7-7-9-9/11-9-11-11/12-11-9-9/11-|
d|--0-0-0-0----0-0--0-----0--0-0----|
a|----------------------------------|
e|----------------------------------|


e|----------------------------------|
b|--10-10-10-8-7-7-8-10-8-7---------|
g|--11-11-11-9-7-7-9-11-9-7---------|
d|--0--0--0--0-0-0-0-0--0-0---------|
a|----------------------------------|
e|----------------------------------|

--song structure--

1. verse 1A
2. verse 1B
3. chorus
4. verse 2
5. chorus
6. chorus
7. verse 1B

thats it.  incredibly easy.
Tap to rate this tab
# A B C D E F G H I J K L M N O P Q R S T U V W X Y Z