Song name
# A B C D E F G H I J K L M N O P Q R S T U V W X Y Z

Prana - Lei Zero chords

Highlighted       Show chord diagrams
INTRO: Cm Cm Am G#

ESTROFE/VERSE:
Cm
Nasce um novo dia
Cm
e o sol no fundo azul sorria
Am		    G#		Cm
pena que as nuvens estejam a tapar
Eu sou assim por dentro
	     Am	    G#
Sou cinzento, sem mudar

  Cm Bm Bb       A         G#    G 
E não   acho que valha a pena tentar

REFRÃO/CHORUS:
Cm		C#
Ah como era bom ter a certeza
	     G#    		G
de que se eu saltar tu saltas também
    	 Cm              C#
Ai ai ai ai como era bom ter a certeza
             G#                G
de que se eu saltar tu saltas   também

Cm G Cm G Cm

VERSE/ESTROFE:
Roda roda roda
Cm
Roda a terra, vira o céu
Cm
sei quem és mas quem sou eu?
     Am		         G#
Para quando um pouco de paz?
       Cm
E a vida começou,
      Cm
mas sozinho é que eu não vou
            Am    G#
porque não sou capaz

  Cm Bm Bb       A         G#    G 
E não   acho que valha a pena tentar

REFRÃO/CHORUS:
Cm		C#
Ah como era bom ter a certeza
	     G#    		G
de que se eu saltar tu saltas também
    	 Cm              C#
Ai ai ai ai como era bom ter a certeza
             G#                G
de que se eu saltar tu saltas   também

SOLO: 
  Cm		    C#		       G#	       G
E-----------------|------------------|---------------|-----------------|
B-----------------|------------------|---------------|--------9-8------|
G---5--8--5-8---5-|-h10--6--10-6---6-|-8--5--8-5---5-|-7-5-4------10-8-|
D-------------6---|--------------6---|-----------5---|-----------------|
A-----------------|------------------|---------------|-----------------|
E-----------------|------------------|---------------|-----------------|

  Cm		    C#		     G#		     G
E-----------------|----------------|-8-------8-----|-10-11-10-8-7-8-8h10-8-|
B-----------------|-98989898989898-|---9---9---9---|-----------------------|
G--87878787878787-|----------------|-----8-------8-|-----------------------|
D-----------------|----------------|---------------|-----------------------|
A-----------------|----------------|---------------|-----------------------|
E-----------------|----------------|---------------|-----------------------|

Cm Cm Cm
Cm Bm G# G

C#m		D
Ah como era bom ter a certeza
	     A    		 G#
de que se eu saltar tu saltas também
    	 C#m              D
Ai ai ai ai como era bom ter a certeza
             A                G#
de que se eu saltar tu saltas   também

C#m		D
Ah como era bom ter a certeza
	     A    		 G#
de que se eu saltar tu saltas também
    	 C#m              D
Ai ai ai ai como era bom ter a certeza
             A                G#
de que se eu saltar tu saltas   também

    A7       G#7
Tu saltas também
    A7	     G#7
Tu saltas também
    A7       G#7
Tu saltas também

C#m

Prana official website: http://prana.com.pt/prana/Inicio.html
Prana facebook page: http://facebook.com/pranabanda
Tap to rate this tab
# A B C D E F G H I J K L M N O P Q R S T U V W X Y Z