Song name
# A B C D E F G H I J K L M N O P Q R S T U V W X Y Z

Prawnsilken - Manwo tab

hi im nicolas the second guitarrist of prawnsilken, heres our demo manwo (woman) and it
talks about the cigarrettes the second adictive product ever made.(the first is the woman)

intro

first guitar
e-------------------------------------------------
b-------------------------------------------------
g-------------------------------------------------
d---7--7--7--7--5--5--5--5--4--4--4--4--5--5--5--5
a-55-55-55-55-55-55-55-55-55-55-55-55-55-55-55-55-
e-------------------------------------------------

second guitar- these is played during the secon time of the intro

e-------------------------------------------------
b-------------------------------------------------
g---7--7--7--7------------------------------------
d---7--7--7--7--5--5--5--5--7--7--7--7--5--5--5--5
a-xx5xx5xx5xx5--5--5--5--5--7--7--7--7--5--5--5--5
e-------------xx3xx3xx3xx3xx5xx5xx5xx5xx3xx3xx3xx3

bass
g----------------------
d----------------------
a--55555---------------
e-------333335555533333

chorus

e-------------------------------------
b-------------------------------------
g---7-77-77---------------------------
d---7-77-77--5-55-55--7-77-77--5-55-55
a---5-55-55--5-55-55--7-77-77--5-55-55
e------------3-33-33--5-55-55--3-33-33


verse
e-------------------------------------
b-------------------------------------
g---7xxxxxx---------------------------
d---7xxxxxx--5xxxxxx--7xxxxxx--5xxxxxx
a---5xxxxxx--5xxxxxx--7xxxxxx--5xxxxxx
e------------3xxxxxx--5xxxxxx--3xxxxxx

order

intro first guitar
intro first and second guitar
bass
chorus
verse
chorus
verse
chorus
intro first guitar
intro first and second guitar
bass
chorus
verse
chorus

ok thats all
i really want to give tahnks for all mi parners and spacially the band


nicolas bernal (guitar) juan david duran(guitar) daniel nariņo(bass)
tomas santandeer(drums) leonardo castro and nelson castaņeda(vocals)

ok
that is all folks 
chorus
verse1
Tap to rate this tab
# A B C D E F G H I J K L M N O P Q R S T U V W X Y Z