Song name
# A B C D E F G H I J K L M N O P Q R S T U V W X Y Z

Prayers For Atheists - Lots Wife tab

Lot's Wife
Prayers For Atheists
Album: Prayers For Atheists

Main riff:
e|--------------------------|
B|--------------------------|
G|--------------------------|
D|--------------------------|  x32
A|-------7-5-7---7-5-7------|  
E|---0h7-------7--------[0]-| <- on last repeat.


Pause after "the friction of raw tissue 'til it splits and pours crimson".

[Listen, they still...] 
e|--------------------------|
B|--------------------------|
G|--------------------------|
D|--------------------------|  x40
A|-------7-5-7---7-5-7------|
E|---0h7-------7------------|


Slower each time.

[... Your shadow handles its gun...]
e|--------------------------|
B|--------------------------|
G|--------------------------|
D|--------------------------|  x3
A|-------7-5-7---7-5-7------|  
E|---0h7-------7--------[0]-| <- last repeat




The second guitar part is: (slow)
e|------------------------|
B|------------------------|
G|--2-----------------2---|
D|--2-----------------2---|
A|--1-----3-----1-----1---|
E|------0-----0-----0-----|

It's very subtle and this song can be played without two guitars.
You can listen to the song for the timing.


http://www.myspace.com/prayersforatheists
Tap to rate this tab
# A B C D E F G H I J K L M N O P Q R S T U V W X Y Z