Song name
# A B C D E F G H I J K L M N O P Q R S T U V W X Y Z

Prefab Sprout - When Love Breaks Down tab

Intro to this great song...


-----C#-------------------F#maj7--------Ebm7---Ab-----|

E---------9------16---16------------------------------|
B----9----9------14---13----14----18-----11----9------|
G----10----------15---------15-----------11----8------|
D----11----------15---------15-----------11----10-----|
A----11----------------------------------------11-----|
E----9----------------------14-----------11-----------|


Riffs:

E---------------------------|-------------------------|
B---------------------------|----6---6-------6---6----|
G---------------------------|--6---8-------6---8------|
D-----/8--6--8--------------|----------------------6-6|
A---------------/8----------|-------------------------|
E-------------------4-4-4---|-------------------------|


Tap to rate this tab
# A B C D E F G H I J K L M N O P Q R S T U V W X Y Z