Song name
# A B C D E F G H I J K L M N O P Q R S T U V W X Y Z

Prefab Sprout - Cowboy Dreams chords

Highlighted       Show chord diagrams
---------------------------------------------------------------------------
		Cowboy Dreams - Prefab Sprout
---------------------------------------------------------------------------
Tabbed by: maguri
Tuning: Standard

Prefab Sprout
Cowboy Dreams (2001)
(Paddy McAloon)
From: "The Gunman And Other Stories"


INTRO
  D                D                A/C#             F#m
e|----5-7---5-7---|----5-7---5-7---|----5-7---5-7---|----5-7---5-7---|
B|--5-------------|--5-------------|--5-------------|--5-------------|
G|----------------|----------------|----------------|----------------|
D|----------------|----------------|----------------|----------------|
A|----------------|----------------|----------------|----------------|
E|----------------|----------------|----------------|----------------|

  Bm                                Esus4            E
e|------5-----5---|------5-----5---|----5-7---5-7---|----4-7---4-7---|
B|----7-----7-----|----7-----7-----|--5-------------|--5-------------|
G|--7-------------|--7-------------|----------------|----------------|
D|----------------|----------------|----------------|----------------|
A|----------------|----------------|----------------|----------------|
E|----------------|----------------|----------------|----------------|



INTRO | D | D | A/C# | F#m | Bm | Bm | Esus4 | E | (2x)

       D         A/C# F#m        Bm          Esus4          E
Cowboy dreams,            cowboy dreams, you give me cowboy dreams

A                      A/G#   F#m
Love's a silver bullet   that blows your world apart
             D                       
I wanna be remembered as an outlaw
D/C#   Bm
   The boy who stole your heart

               A                            A/G#   F#m
I wanna be the guy who wears the white hat    then rides across the plain
                  D
I'm gonna be your enigmatic stranger
      D/C#    Bm
Honey you are lookin' at your Shane


       D         A/C# F#m        Bm          Esus4          E
Cowboy dreams,            cowboy dreams, you give me cowboy dreams
       D         A/C# F#m        Bm          Esus4          E
        [Lick]            cowboy dreams, you give me cowboy dreams


   A                      A/G#   F#m
If ever you're in trouble,    if ever you are down
                 D
I'm gonna be the hangin' judge and sheriff
      D/C#      Bm
Gonna ride your troubles out of town

       A                      A/G#    F#m
You're lookin' at a mountain,  you're lookin' at the law
       D                      D/C#
You're lookin at a six gun legend
Bm
Fastest on the draw


       D         A/C# F#m        Bm          Esus4          E
Cowboy dreams,            cowboy dreams, you give me cowboy dreams
       D         A/C# F#m        Bm          Esus4          E
        [Lick]            cowboy dreams, you give me cowboy dreams


INSTRUMENTAL PART (not on the single)
| D | D | A/C# | F#m | Bm | Bm | Esus4 | E |
| D | D | A/C# |   F#m   |   Bm   | Bm | Esus4 | E |
                 [Yippi ay yay]


A                        A/G#   F#m
  I can make you happy,    it's easier than it seems
          D
I'm gonna ambush you at sundown
    D/C#  Bm
I'm gonna give you cowboy dreams


       D         A/C# F#m         Bm             Esus4           E
Cowboy dreams,           Yippi ay yay, I'm gonna give you cowboy dreams
       D         A/C# F#m          Bm            Esus4           E
        [Lick]            Yippi ay oh, I'm gonna give you cowboy dreams
[yee haw]


BANJO DUEL
| D | D | A/C# | F#m | Bm | Bm | Esus4 | E |
| D | D | A/C# |   F#m   |   Bm   | Bm | Esus4 | E |



       D         A/C# F#m        Bm                Esus4           E
Cowboy dreams,            cowboy dreams, I'm gonna give you cowboy dreams
       D         A/C# F#m          Bm             Esus4           E
        [Lick]            Yippi ay yay, I'm gonna give you cowboy dreams

INSTRUMENTAL PART
| A | A  A/G#| F#m | F#m | D | D   D/C#| Bm | Bm |
| A | A  A/G#| F#m | F#m | D | D   D/C#| Bm | Bm |


A                        A/G#  F#m
Love's a silver bullet,   that blows your world apart
                D
I wanna have it written on my tombstone
     D/C#     Bm
Here lies the boy who stole your heart


       A         A/G#  F#m       D            D/C#  Bm
Cowboy dreams,            cowboy dreams
       A         A/G#  F#m       D            D/C#  Bm
Cowboy dreams,            cowboy dreams
       A         A/G#  F#m       D            D/C#  Bm
Cowboy dreams,            cowboy dreams

(Repeat and fade)
Tap to rate this tab
 
# A B C D E F G H I J K L M N O P Q R S T U V W X Y Z