Prefab Sprout - Electric Guitars tab

---------------------------------------------------------------------------
		Electric Guitars - Prefab Sprout
---------------------------------------------------------------------------
Tabbed by: maguri
Tuning: Standard

Prefab Sprout
Electric Guitars (1997)
(Paddy McAloon)
From: "Andromeda Heights" 

One of the best Beatles tribute songs I know. 


INTRO
  A                Bm               C#m              Bm
e|----------------|--0---4-----2---|----------------|----------------|
B|------0---------|----3-----3-----|--0-------0-----|----------------|
G|--2---------2---|----------------|----1-2-------2-|----------------|
D|----2-----2-----|----------------|----------------|----------------|
A|0---------------|2---------------|4---------------|(2)-------------|
E|----------------|----------------|----------------|----------------|

  A                Bm               C#m              Bm
e|----------------|--0---4-----2---|----------------|9---------------|
B|------0---------|----3----(3)----|--0-------0-----|10--------------|
G|--2---------2---|----------------|----1-2---------|11--------------|
D|----2----(2)----|----------------|----------------|9---------------|
A|0---------------|2---------------|4---------------|----------------|
E|----------------|----------------|----------------|----------------|

OUTRO
  A                Bm               C#m              Bm
e|----------------|--0---4-----2---|----------------|----------------|
B|------0---------|----3-----3-----|--0-------0-----|----------------|
G|--2---------2---|----------------|----1-2-------2-|----------------|
D|----2-----2-----|----------------|----------------|----------------|
A|0---------------|2---------------|4---------------|(2)-------------|
E|----------------|----------------|----------------|----------------|

  A                Bm               C#m              Bm
e|----------------|--0---4-----2---|----------------|----------------|
B|------0---------|----3-----3-----|--0-------0-----|----------------|
G|--2---------2---|----------------|----1-2-------2-|----------------|
D|----2-----2-----|----------------|----------------|----------------|
A|0---------------|2---------------|4---------------|(2)-------------|
E|----------------|----------------|----------------|----------------|

  A                Bm               C#m              Bm
e|----------------|--0---4-----2---|----------------|9---------------|
B|------0---------|----3-----3-----|--0-------0-----|10--------------|
G|--2---------2---|----------------|----1-2---------|11--------------|
D|----2----(-2-----|----------------|----------------|9---------------|
A|0---------------|2---------------|4---------------|----------------|
E|----------------|----------------|----------------|----------------|
2nd guitar
e|----------------|----------------|----------------|----2---0-------|
B|----------------|----------------|----------------|2---------------|
G|----------------|----------------|----------------|--2---2---2---2-|
D|----------------|----------------|----------------|------------4---|
A|----------------|----------------|----------------|----------------|
E|----------------|----------------|----------------|----------------|
                                                     (repeat and fade)


---------------------------------------------------------------------------

*CHORDS
         e-B-G-D-A-E
D6/E     2-3-2-2-2-0
D/A      2-3-2-0-0-x
G#dim    x-3-4-3-x-4
Dmaj7/A  x-2-2-0-0-x

---------------------------------------------------------------------------


      A                  Bm
I'd a dream that we were rock stars
         D/A                    G#dim
And that flash bulbs popped the air  
          C#m            Bm      D6/E*     A       Bm  D6/E*
And girls fainted, every time we shook our hair.   

        A                  Bm
We were songbirds, we were Greek Gods
        D/A            G#dim
We were singled out by fate
        C#m           Bm        D6/E*  A       Bm  D6/E*
We were quoted out of context - it was great.

A            A/G#     F#m           D/A
Grander than castles, cathedrals or stars
             A        A/G#       F#m             D/A
             Riots in airports - everywhere that we go
(Electric guitars!)
C#m                Dmaj7/A           D6/E*
Mascara meltdown - hysteria-a-go-go

            A            A/G#     F#m           D/A
            Grander than castles, cathedrals or stars
(Electric guitars!)

             A        A/G#       F#m             D/A
             Riots in airports - everywhere that we go
(Electric guitars!)
C#m                Dmaj7/A           D6/E*
Mascara meltdown - hysteria-a-go-go

           | A | Bm | C#m | Bm | 
Electric Guitars!  [INTRO riff]
           | A | Bm | C#m | Bm | 
Electric Guitars!  [INTRO riff]

       A             Bm
When I woke up I was laughing
          D/A           G#dim
Well what else was I to do
      C#m           Bm      D6/E*   A       Bm  D6/E*
Every detail of the dream I had was true

        A                  Bm
We were songbirds, we were Greek Gods
        D/A            G#dim
We were singled out by fate
        C#m           Bm        D6/E*
We were quoted out of context - we were ...

    A            A/G#     F#m           D/A
    Grander than castles, cathedrals or stars
  ... great
             A        A/G#       F#m             D/A
             Riots in airports - everywhere that we go
(Electric guitars!)
C#m                Dmaj7/A           D6/E*
Mascara meltdown - hysteria-a-go-go

            A            A/G#     F#m           D/A
            Grander than castles, cathedrals or stars
(Electric guitars!)

             A        A/G#       F#m             D/A
             Riots in airports - everywhere that we go
(Electric guitars!)
C#m                Dmaj7/A           D6/E*
Mascara meltdown - hysteria-a-go-go

            A            A/G#     F#m           D/A
            Grander than castles, cathedrals or stars
(Electric guitars!)
                   A        A/G#       F#m             D/A
(Yeah, yeah, yeah, yeah!)              everywhere that we go

C#m                Dmaj7/A           D6/E*
Mascara meltdown - hysteria-a-go-go-jo-jo

OUTRO
           | A | Bm | C#m | Bm | 
Electric Guitars!
           | A | Bm | C#m | Bm | 
Electric Guitars!
           | A | Bm | C#m | Bm | 
Electric Guitars!        e|----2---0-------|
                         B|2---------------|
                         G|--2---2---2---2-|
                         D|------------4---|
                         A|----------------|
                         E|----------------|
                           (repeat til fade)


Tap to rate this tab
 
# A B C D E F G H I J K L M N O P Q R S T U V W X Y Z