Song name
# A B C D E F G H I J K L M N O P Q R S T U V W X Y Z

Prefab Sprout - Wild Card In The Pack chords

Highlighted       Show chord diagrams
---------------------------------------------------------------------------
                Wild Card in the Pack - Prefab Sprout
---------------------------------------------------------------------------
Tabbed by: maguri
Tuning: Standard

Prefab Sprout 
Wild Card in the Pack (2001)
(McAloon)

From: "The Gunman And Other Stories"

---------------------------------------------------------------------------
CHORDS

          e b g d a e
Esus4     0-0-2-2-2-0
C/D       0-1-0-0-x-x
G/D       3-0-0-0-x-x
Fadd9     3-1-2-3-x-1(t)
D7sus4    3-1-2-0-x-x

---------------------------------------------------------------------------
Capo 3rd fret

VERSE PATTERN
  G     Esus4      Em               C     Cmaj7
e|----------------|----------------|----------------|----------------|
B|--------------0-|0---------------|------0-------0-|0---------------|
G|0-----2-------0-|0-2-2-0-0-------|0-----0-------0-|0-2-2-0-0-------|
D|0-----2---------|--2-2-2-2---0h2-|2-----2---------|--2-2-2-2---0h2-|
A|x-----2---------|----------------|3-----3---------|----------------|
E|3-----0---------|----------------|----------------|----------------|


  G     Esus4      Em               Am7              C/D
e|----------------|----------------|----------------|0-----0---------|
B|--------------0-|0---------------|1-----1---------|1-----1---------|
G|0-----2-------0-|0-2-2-0-0-------|0-----0---------|0-----0---------|
D|0-----2---------|--2-2-2-2-------|2-----2---------|0-----0---------|
A|x-----2---------|----------------|0-----0---------|----------------|
E|3-----0---------|----------------|----------------|----------------|


  Em    Em7                         Cmaj7
e|----------------|----------------|0---------------|----------------|
B|0-----3-------0-|0---------------|0-----0-------0-|0---------------|
G|0-----0-------0-|0-2-2-0-0-------|0-----0-------0-|0-2-2-0-0-------|
D|2-----2---------|--2-2-2-2-------|2-----2---------|--2-2-2-2-------|
A|2-----2---------|----------------|3-----3---------|----------------|
E|0-----0---------|----------------|----------------|----------------|

---------------------------------------------------------------------------
Capo 3rd fret


         G      Esus4  Em
When she walked in
      C Cmaj7
I was losing
         G      Esus4  Em
She took a long look
      Am7         C/D
At my hand, at my hand
                   Em  Em7             Cmaj7
And said, 'There's one card you're not using'

         G                Em
She said, 'King, queen or jack
           Cmaj7               
Love's the wild card in the pack'
G                 Em
  'King, queen or jack
           Cmaj7               
Love's the wild card in the pack'

        G      Esus4  Em
I said, sit down,
               C    Cmaj7
I'm pleased to meet you
            G     Esus4  Em
Where'd you learn to
          Am7             C/D
Play this game, play this game?
          Em    Em7               Cmaj7
She said 'Thank you, this game is not new

       G                Em
You see, King, Queen or jack
           Cmaj7               
Love's the wild card in the pack'
G                 Em
  'King, queen or jack
           Cmaj7               
Love's the wild card in the pack'

C
  Luck comes and goes
             G/D
Well, it's a tumbleweed
    Em
The wild wind blows
Fadd9
  Love's constant flame
               D7sus4
Well, it's the card that keeps you in the game

        G  Esus4  Em
Now ill fortune
       C   Cmaj7
May pursue you
             G   Esus4  Em
Still here's how to
         Am7            C/D
Beat the odds, beat the odds
         Em  Em7         Cmaj7
You seat someone smart beside you
          G              Em
If they're watching your back,
           Cmaj7               
Love's the wild card in the pack'

C
  Luck comes and goes
             G/D
Well, it's a tumbleweed
    Em
The wild wind blows
Fadd9
  Love's constant flame
               D7sus4
Well, it's the card that keeps you in the game

SOLO
| G Esus4 | Em | C Cmaj7 | Cmaj7 |
| G Esus4 | Em | Am7 | C/D |

         Em  Em7         Cmaj7
You need someone smart beside you
          G              Em
If they're watching your back,
           Cmaj7               
Love's the wild card in the pack'
G                 Em
  'King, queen or jack
           Cmaj7               
Love's the wild card in the pack'
G                 Em
  'King, queen or jack
           Cmaj7               
Love's the wild card in the pack'
G                 Em
  'King, queen or jack
           Cmaj7               
Love's the wild card in the pack'

(repeat and fade)
Tap to rate this tab
 
# A B C D E F G H I J K L M N O P Q R S T U V W X Y Z