Song name
# A B C D E F G H I J K L M N O P Q R S T U V W X Y Z

Prego - Parachutes And Flying Machines tab

Artist: Prego
Guitarist: Edd Simpson
Song: Parachutes And Flying Machines
Album: The Suffolk Explosion [Various Artists]
Tabbed By: Lewis [lewis_mason21@hotmail.com]
Website: http://www.pregomusic.com

A relatively undiscovered band who I think are awesome!  The album comes out next year!  
is a second guitar in the second verse, but I've only tabbed Guitar One. ;)  The main 
the song is here, but some parts may still be missing!

[Tuning: Drop D - D,A,D,G,B,e]

Intro: [x2]
e|----------------------------------------------------------------------|
B|----------------------------------------------------------------------|
G|----------------------------------------------------------------------|
D|----------------------------------------------------------------------|
A|-4-4-4-4-4-4-4-4--5-5-5-5-5-5-5-5-5--9-9-9-9-9-9-9-9--7-7-7-7-7-7-7-7-|
D|-2-2-2-2-2-2-2-2--3-3-3-3-3-3-3-3-3--7-7-7-7-7-7-7-7--5-5-5-5-5-5-5-5-|

Verse One: [x2]
("Ticking clocks it's time to go" ... "Waiting rooms on show")
e|----------------------------------------------------------------------|
B|----------------------------------------------------------------------|
G|----------------------------------------------------------------------|
D|----------------------------------------------------------------------|
A|-4-4-4-4-4-4-4-4--5-5-5-5-5-5-5-5-5--9-9-9-9-9-9-9-9--7-7-7-7-7-7-7-7-|
D|-2-2-2-2-2-2-2-2--3-3-3-3-3-3-3-3-3--7-7-7-7-7-7-7-7--5-5-5-5-5-5-5-5-|

Chorus One: [x1]
("And it's all alone in here")
e|-----------------|
B|-----------------|
G|-----------------|
D|-----------------|
A|-9~----12~----7~-|
D|-7~----10~----5~-|

Verse Two: [x2]
("Hidden is what's best for you" ... "Take your time and breathe")
e|----------------------------------------------------------------------|
B|----------------------------------------------------------------------|
G|----------------------------------------------------------------------|
D|----------------------------------------------------------------------|
A|-4-4-4-4-4-4-4-4--5-5-5-5-5-5-5-5-5--9-9-9-9-9-9-9-9--7-7-7-7-7-7-7-7-|
D|-2-2-2-2-2-2-2-2--3-3-3-3-3-3-3-3-3--7-7-7-7-7-7-7-7--5-5-5-5-5-5-5-5-|

Chorus Two: [x1]
("And it's all alone in here" ... "Yes it's all alone in here")
e|-----------------|
B|-----------------|
G|-----------------|
D|-----------------|
A|-9~----12~----7~-|
D|-7~----10~----5~-|

e|-------------------------------------------------------------|
B|-------------------------------------------------------------|
G|-------------------------------------------------------------|
D|-------------------------------------------------------------|
A|-9-9-9-9-9-9-9-9-9--12-12-12-12-12-12-12-12--7-7-7-7-7-7-7-7-|
D|-7-7-7-7-7-7-7-7-7--10-10-10-10-10-10-10-10--5-5-5-5-5-5-5-5-|
Tap to rate this tab
# A B C D E F G H I J K L M N O P Q R S T U V W X Y Z