Song name
# A B C D E F G H I J K L M N O P Q R S T U V W X Y Z

Premiata Forneria Marconi - Appena Un Po tab

PFM - Appena un Po'


E-------------------------------10-------|
B------13--------------------------10-10-|
G-9--9----------------9------10----------|
D----------10h12---10---10---------------|
A---0-----0------0---------8-------------|
E----------------------------------------|

-------------------------------------------------|
---9h10p9---9-10--12------10---------------------|
----------11--------------------------5----------|
--------------------12--10--10-------------------|
----------------11-----0----------7-0---4-5/7-7--|
-0-----------------------------------------------|


E----------------------------------------------------------------------|
B------3---10---9h10p9--9-10--12---9------10-10-12-----10----9-10---10-|
G--------2------------11-------------------------------------------9---|
D----------------------------0---10----10------------10----9-----------|
A--------------------------------------------------0-----0--------0----|
E--3-1--------0----------------------8---------------------------------|

E-----------------------------------------------17--------|
B---11-------------15------------------12-----------------|
G-9--------9----------14-14p13p11-13-14-------------------|
D-----10-12--10-15------------------------12-10-----------|
A---------------------------------------------------------|
E---------------------------------------------------------|


E---------------------------------------------------|
B---11-------------15------------------12-----------|
G-9--------9----------14-14p13p11-13-14---13-14-----|
D-----10-12--10-15----------------------------------|
A---------------------------------------------------|
E---------------------------------------------------|


E---17-15-13-12---------------12-------------------------|
B---------------15-13-12---------15-12-13-10-12----10-10-|
G------------------------14-13------------------13-------|
D--------------------------------------------------------|
A--------------------------------------------------------|
E--------------------------------------------------------|


-----17-15-13-12----------------12-----------------|
-----------------15-13-12----------13-12h13p12-10--|
--------------------------14-13--------------------|
---------------------------------------------------|
---------------------------------------------------|
---------------------------------------------------|
Tap to rate this tab
 
# A B C D E F G H I J K L M N O P Q R S T U V W X Y Z