Guitaretab - guitar tabs
Song name
# A B C D E F G H I J K L M N O P Q R S T U V W X Y Z

Preschool Tea Party Massacre - Baby Clogged Toilet tab

BABY CLOGGED TOILET
As recorded by Preschool Tea Party Massacre
(From the 2000 Album SMOKIN' AT THE GAS STATION)


	

Words and Music by PTPM
Arranged by PTPM

Gtr I (D A D G B E) - 'Untitled'

   Intro Verse
    Q=130
    D5              C       D5              C
   4/4
    Gtr I
    PM----------|    TP     PM----------|    TP
    S S S S S S S S  H      S S S S S S S S  H
||------------------11----|-----------------10-----||
||o-----------------10----|------------------9----o||
||------------------------|------------------------||
||------------------------|------------------------||
||o-0-0-0---0-0-0---------|-0-0-0---0-0-0---------o||
||--0-0-0---0-0-0---------|-0-0-0---0-0-0----------||


 We Ride The Ghost Of...
  Q=95
                  D5
                  PM----------------|
  W          H    Q  Q    +H     Q  Q
|----------|------------|--------------|
|----------|------------|--------------|
|----------|------------|--------------|
|----------|------------|--------------|
|----------|------0--0--|-(0)----0--0--|
|----------|------0--0--|-(0)----0--0--|


  D5
                               4/8
   PM----------------------|
  +H     Q  Q    +H     Q  Q    +Q   +E  E
|--------------|--------------|------------|
|--------------|--------------|------------|
|--------------|--------------|------------|
|--------------|--------------|------------|
|-(0)----0--0--|-(0)----0--0--|-(0)--(0)-0-|
|-(0)----0--0--|-(0)----0--0--|-(0)--(0)-0-|


 Interlude
  Q=130
 4/4
  W          W          W          W
|----------|----------|----------|------|
|----------|----------|----------|------|
|----------|----------|----------|------|
|----------|----------|----------|------|
|----------|----------|----------|------|
|----------|----------|----------|------|

[ Tab from: http://www.guitaretab.com/p/preschool-tea-party-massacre/90035.html ]
   Breakdown
    Q=70
    D5              D5
    PM-----|   ~~   PM-----|    ~~~~
    E Q  E Q   Q    E Q  E Q    Q
||----------------|------------------||
||o---------------|-----------------o||
||------------13--|-----------[16]---||
||----------------|------------------||
||o-0-0--0-0------|-0-0--0-0--------o||
||--0-0--0-0------|-0-0--0-0---------||


  Q=165
  D5
 5/8        6/8              1/4
  E E Q.     S S S S E Q.     E E
|----------|----------------|-----*|
|----------|----------------|-----*|
|----------|----------------|-----*|
|----------|----------------|-----*|
|-0--------|-0-0-0-0-0------|-0---*|
|-0--------|-0-0-0-0-0------|-0---*|



Duration Legend
---------------
W - whole; H - half; Q - quarter; E - 8th; S - 16th; T - 32nd; X - 64th; a - acciaccatura
+ - note tied to previous; . - note dotted; .. - note double dotted
Uncapitalized letters represent notes that are staccato (1/2 duration)
Irregular groupings are notated above the duration line
Duration letters will always appear directly above the note/fret number it represents the
duration for.  Duration letters with no fret number below them represent rests.  Multi-
bar rests are notated in the form Wxn, where n is the number of bars to rest for.  Low
melody durations appear below the staff

Tablature Legend
----------------
 h   - hammer-on
 p   - pull-off
 b   - bend
 pb  - pre-bend
 r   - bend release (if no number after the r, then release immediately)
 /\  - slide into or out of (from/to "nowhere")
 s   - legato slide
 S   - shift slide
 - natural harmonic
[n]  - artificial harmonic
n(n) - tapped harmonic
 ~   - vibrato
 tr  - trill
 T   - tap
 TP  - trem. picking
 PM  - palm muting
\n/  - tremolo bar dip; n = amount to dip
 \n  - tremolo bar down
 n/  - tremolo bar up
/n\  - tremolo bar inverted dip
 =   - hold bend; also acts as connecting device for hammers/pulls
 <> - volume swell (louder/softer)
 x   - on rhythm slash represents muted slash
 o   - on rhythm slash represents single note slash

Misc Legend
-----------
 |  - bar
||  - double bar
||o - repeat start
o|| - repeat end
*|  - double bar (ending)
 :  - bar (freetime)
 $  - Segno
 &  - Coda
Tempo markers -  = BPM(8/16=s8/s16), where s8 = swing 8ths, s16 = swing 16ths

Related for Baby Clogged Toilet tab