Song name
# A B C D E F G H I J K L M N O P Q R S T U V W X Y Z

Presence - Somebodys Watching Me tab

Awesome cover of a song by an awesome band. Hope you like the tab!

Tuning is drop Db (or drop C#)
This song has two guitar parts, the second mostly just serves as background rhythm 
during the solo.

main guitar part----------------------------------------------------||

Intro: x3
eb|------------------|   
Bb|------------------|
Gb|------------------|
Db|--0-7-8-7-0-7-8-7-|
Ab|--0-7-8-7-0-7-8-7-|
Db|--0-7-8-7-0-7-8-7-|
     * * * * * * * *

eb|----------------|   
Bb|----------------|
Gb|----------------|
Db|--0-7-8-7-0-7-8-|
Ab|--0-7-8-7-0-7-8-|
Db|--0-7-8-7-0-7-8-|
     * * * * * * *

Intro part 2: x2
eb|--------------------------------------------------------------|   
Bb|--------------------------------------------------------------|
Gb|--------------------------------------------------------------|
Db|--0-0--0-12s--10--0-0--0-8--7--0-0--0-12s--10--0-0--0-10--8-7-|
Ab|--0-0--0-12s--10--0-0--0-8--7--0-0--0-12s--10--0-0--0-10--8-7-|
Db|--0-0--0-12s--10--0-0--0-8--7--0-0--0-12s--10--0-0--0-10--8-7-|
     * *  *          * *  *       * *  *          * *  *

Verse: (just a quick couple notes played directly following the intro)
eb|------|   
Bb|------|
Gb|------|
Db|--0-0-|
Ab|--0-0-|
Db|--0-0-|
     * *

downward pickslide into the chorus

Chorus: x4
eb|-------------------------------------|   
Bb|-------------------------------------|
Gb|-------------------------------------|
Db|--00-00-0-12s--10-8-888-88-8-10--8-7-|
Ab|--00-00-0-12s--10-8-888-88-8-10--8-7-|
Db|--00-00-0-12s--10-8-888-88-8-10--8-7-|
                       **  *

verse 2:
eb|----|   
Bb|----|
Gb|----|
Db|--0-|
Ab|--0-|
Db|--0-|

(at 1:03)
eb|---------------------------------------|   
Bb|---------------------------------------|
Gb|---------------------------------------|
Db|--x-x--x-12s--10-----x-x--x-12--10--8--|
Ab|--x-x--x-12s--10-----x-x--x-12--10--8--|
Db|--x-x--x-12s--10-----x-x--x-12--10--8--|


short downward pickslide then 
Prechorus:
eb|-----------|   
Bb|-----------|
Gb|-----------|
Db|--8-10-8-7-|
Ab|--8-10-8-7-|
Db|--8-10-8-7-|
              
Chorus: x4
eb|-------------------------------------|   
Bb|-------------------------------------|
Gb|-------------------------------------|
Db|--00-00-0-12s--10-8-888-88-8-10--8-7-|
Ab|--00-00-0-12s--10-8-888-88-8-10--8-7-|
Db|--00-00-0-12s--10-8-888-88-8-10--8-7-|
                       **  *

Solo:
eb|----------------------------------------------------------------------|   
Bb|----------------------------------------------------------------------|
Gb|--17-15--------------------------------------------15-17-15-----------|
Db|--------19b---17-15-17-19b--19b--17-15b---15-17-19----------19b---17--|
Ab|----------------------------------------------------------------------|
Db|----------------------------------------------------------------------|

eb|---------------------------------------------------------|   
Bb|---------------------------------------------------------|
Gb|--19p17s15s14--------------------------------------------|
Db|--------------17-15-17-15--14--12-14-15--14--15-15-15-15-|
Ab|---------------------------------------------------------|
Db|---------------------------------------------------------|

eb|-------------------------------------------------------------------|
Bb|---------------------------------------------------17b------18b----|
Gb|--------------------------17-17-17-17-19b--------------------------|
Db|--17-17-17-17-19-19-19-19------------------------------------------|
Ab|-------------------------------------------------------------------|
Db|-------------------------------------------------------------------|

Post solo: x3
eb|-------------------------|
Bb|-------------------------|
Gb|-------------------------|
Db|--0-0--0-0---7-8-10--8-7-|
Ab|--0-0--0-0---7-8-10--8-7-|
Db|--0-0--0-0---7-8-10--8-7-|
     * *  * *   * *

eb|-----------|
Bb|-----------|
Gb|-----------|
Db|--0-0--0-0-|
Ab|--0-0--0-0-|
Db|--0-0--0-0-|
     * *  * * 

downward pickslide and then

chorus: x8
eb|-------------------------------------|   
Bb|-------------------------------------|
Gb|-------------------------------------|
Db|--00-00-0-12s--10-8-888-88-8-10--8-7-|
Ab|--00-00-0-12s--10-8-888-88-8-10--8-7-|
Db|--00-00-0-12s--10-8-888-88-8-10--8-7-|
                       **  *

-----------------------------------------------------------------||


Rhythm guitar part

during background of solo:
eb|-------------------------------------------------------------|   
Bb|-------------------------------------------------------------|
Gb|-------------------------------------------------------------|
Db|--00-00-0--h12s-10--88-88-8s--7--00-00-0--h12s-10--88-88-8---|
Ab|--00-00-0--h12s-10--88-88-8s--7--00-00-0--h12s-10--88-88-8---|
Db|--00-00-0--h12s-10--88-88-8s--7--00-00-0--h12s-10--88-88-8---|

Rhythm guitar during the end of the solo (coming in during the last 19b)
Same as intro guitar part: x3
eb|------------------|     
Bb|------------------|
Gb|------------------|
Db|--0-7-8-7-0-7-8-7-|
Ab|--0-7-8-7-0-7-8-7-|
Db|--0-7-8-7-0-7-8-7-|
     * * * * * * * *
eb|----------------|   
Bb|----------------|
Gb|----------------|
Db|--0-7-8-7-0-7-8-|
Ab|--0-7-8-7-0-7-8-|
Db|--0-7-8-7-0-7-8-|
     * * * * * * * 
-----------------------------------------------------------------||

legend:
s - slide
b - bend/wiggle
* - palm mute
x - muting with fingers on fret, rather then palm mute
Tap to rate this tab
 
# A B C D E F G H I J K L M N O P Q R S T U V W X Y Z