Guitaretab - guitar tabs
Song name
# A B C D E F G H I J K L M N O P Q R S T U V W X Y Z

Presidents Of The Usa - Kick Out The Jams tab

Kick Out The Jams
T H E   P R E S I D E N T S   O F   T H E   U S A
Tabbed By Aaron Bridgeman (rokken@sicness.net)

http://bogans.arecool.net

TUNING: Drop D down a 1/2 step (Db Ab Db Gb Bb eb)

KEY:
^ = bend up and back
x = dead note
~ = sustain

RIFF 1:
eb|-----------------|
Bb|-----------------|
Gb|-----------------|
Db|-----------------|
Ab|-----------------|
Db|-0-0-3-5--5-5^-3-|

RIFF 2:
eb|----------------|
Bb|----------------|
Gb|----------------|
Db|-0-0-3-5--5-5-3-|
Ab|-0-0-3-5--5-5-3-|
Db|-0-0-3-5--5-5-3-|
[ Tab from: http://www.guitaretab.com/p/presidents-of-the-usa/14999.html ]
PRE-CHORUS:
eb|---------------------------------|
Bb|---------------------------------|
Gb|---------------------------------|
Db|---------------------------------|
Ab|-3-3-3-3-5-5-5-5-3-3-3-3-5-5-5-5-|
Db|-3-3-3-3-5-5-5-5-3-3-3-3-5-5-5-5-|

then... "LET ME BE WHO I AM"...
eb|--------------|
Bb|--------------|
Gb|--------------|
Db|-x--x--x--3~~-|
Ab|-x--x--x--3~~-|
Db|-x--x--x--3~~-|

CHORUS:
eb|----------|
Bb|----------|
Gb|----------|
Db|-3-----5--|
Ab|-3-----5--|
Db|-3-----5--|
strum the first chord a while, then the second

..and done.
Related for Kick Out The Jams tab
Kick Out The Jams chords by Presidents Of The Usa