Song name
# A B C D E F G H I J K L M N O P Q R S T U V W X Y Z

Presidents Of The Usa - Peaches tab

this is a good song to learn how to play because its easy
-please rate, send comment to garrettlane23@yahoo.com

figure out strumming for the C#/ on the 9 9 9 8 just shake the string w/ your finger ( s 
shake)

INTRO. w/out distortion
  C#
|--4--|     |-------------------|-------------------|
|--4--|     |-------------------|-------------------|
|--6--|     |-------------------|-------------------|
|--6--|     |-------------------|-------------------|
|--4--|     |--9s--9s--9s-8s~---|--6-6-6-8-6-4s~----|
|--4--|     |-------------------|-------------------|


|----------------------------------|
|----------------------------------|
|----------------------------------|
|----------------------------------|
|--9--13-13-11s~----6-6-6-8-6-4s~--|
|----------------------------------|


VERSE: w/out distortion

repeat intro. a couple of times then this:


|-------------------------------|     |---------------------------------|
|-------------------------------|     |---------------------------------|
|-------------------------------|     |---------------------------------|
|--11-11-11-10----8-8-8-10-8-6--|     |-11---15-15-13s----8-8-8-10-8-6--|
|--9--9--9--8-----6-6-6--8-6-4--|     |--9---13-15-11s----6-6-6--8-6-4--|
|-------------------------------|     |---------------------------------|


CHORUS: w/ distortion
   figure out strumming for the chorus, its easy
   E        A            B
|--0--|  |--0--|      |--2--|
|--0--|  |--3--|      |--4--|
|--1--|  |--3--|      |--4--|
|--2--|  |--3--|  x3  |--4--|  repeat this pattern twice
|--2--|  |--0--|      |--2--|
|--0--|  |--0--|      |--2--|


VERSE:

CHORUS:

BRIDGE:

|-----------------------------------|
|-----------------------------------|
|-----------------------------------|
|-----------------------------------|  x8
|-----------------------------------|
|--9-9-9-7-7-7-7-7-6-6-6-7-7-7-7-7--|

OUTRO: /w distortion

|--------------------------------------|
|--------------------------------------|
|--------------------------------------|
|--11-11-11-9-9-9-9-9-8-8-8-9-9-9-9-9--|
|--11-11-11-9-9-9-9-9-8-8-8-9-9-9-9-9--|
|---9--9--9-7-7-7-7-7-6-6-6-7-7-7-7-7--|

thats pretty much it. its probably one of my favorite songs to play in my band. every 
note is right.positive.
Tap to rate this tab
# A B C D E F G H I J K L M N O P Q R S T U V W X Y Z