Song name
# A B C D E F G H I J K L M N O P Q R S T U V W X Y Z

Presidents Of The Usa - So Lo So Hi tab

this song is down half a step and drop d (like all PUSA)

-------------------------------------------------------|
-------------------------------------------------------|
-------------------------------------------------------|
-5--9h10--4h5--9h10-10--5--9h10--0h2--5h7-7------------|
-5--9h10--4h5--9h10-10--5--9h10--0h2--5h7-7------------|
-5--9h10--4h5--9h10-10--5--9h10--0h2--5h7-7------------|
Bird, You made me walk on dirt my fin got all hurt...

----------------------------------------------------------|
----------------------------------------------------------|
------5-5-5-----------------------------------------------|
-5-5--5-5-5--(X3)--2--------------------------------------|
-5-5--3-3-3--------2--------------------------------------|
-5-5---------------2--------------------------------------|
I can walk and breathe air...now I feel so

-----------------------------------------------------------|
-----------------------------------------------------------|
-----7-7-7-5-5-5-5-5-5-5-5----------3-3-3-5-5-5-8-8-8------|
-5-5-7-7-7-5-5-5-5-5-5-5-5-(X2)-5-5-3-3-3-5-5-5-8-8-8------|
-5-5-5-5-5-3-3-3-3-3-3-3-3------5-5-1-1-1-3-3-3-6-6-6------|
-5-5----------------------------5-5------------------------|
So lo Im so hi~                 Just a bird wanna learn...

-------------------------------------------------------------|
-------------------------------------------------------------|
-----7-7-7---------------------------------------------------|
-5-5-7-7-7-2-2-2-2-2-2-2-2-3-3-3-3-3-3-3-3-5-5-5-5-5-5-5-5---|
-5-5-5-5-5-2-2-2-2-2-2-2-2-3-3-3-3-3-3-3-3-5-5-5-5-5-5-5-5---|
-5-5-------2-2-2-2-2-2-2-2-3-3-3-3-3-3-3-3-5-5-5-5-5-5-5-5---|
Im so lo   Im hi...........Im hi...........Im hi~

back to verse

--------------------------------------------------------|
--------------------------------------------------------|
--------------------------------------------------------|
---5-9h5-5--------2---7---------------------------------|
--5-5---5--(X3)--2-2-7-7--------------------------------|
-5--------------2---7-----------------------------------|
Fish-you made me do the twist....

back to prechorus, then chorus then at the end:

-------------------------------------------------------------------|
-------------------------------------------------------------------|
-------------------------------------------------------------------|
-------------------------------------------------------------------|
-2-2-2-2-2-2-2-3-3-3-3-3-3-3-3-5-5-5-5-5-5-5-5-4-4-4-4-4-4-4-4-----|
-2-2-2-2-2-2-2-3-3-3-3-3-3-3-3-5-5-5-5-5-5-5-5-4-4-4-4-4-4-4-4-----|
So lo Im hi...so lo Im hi.... Im so lo so lo that I am Hi~~
Tap to rate this tab
# A B C D E F G H I J K L M N O P Q R S T U V W X Y Z